  0
SECTION
  2
HEADER
  9
$ACADVER
  1
AC1015
  9
$ACADMAINTVER
 70
     6
  9
$DWGCODEPAGE
  3
ANSI_1252
  9
$INSBASE
 10
0.0
 20
0.0
 30
0.0
  9
$EXTMIN
 10
-279.2
 20
0.0
 30
0.0
  9
$EXTMAX
 10
279.2
 20
400.0
 30
0.0
  9
$LIMMIN
 10
0.0
 20
0.0
  9
$LIMMAX
 10
420.0
 20
297.0
  9
$ORTHOMODE
 70
     0
  9
$REGENMODE
 70
     1
  9
$FILLMODE
 70
     1
  9
$QTEXTMODE
 70
     0
  9
$MIRRTEXT
 70
     1
  9
$LTSCALE
 40
1.0
  9
$ATTMODE
 70
     1
  9
$TEXTSIZE
 40
3.5
  9
$TRACEWID
 40
1.0
  9
$TEXTSTYLE
  7
Standard
  9
$CLAYER
  8
0
  9
$CELTYPE
  6
ByLayer
  9
$CECOLOR
 62
   256
  9
$CELTSCALE
 40
1.0
  9
$DISPSILH
 70
     0
  9
$DIMSCALE
 40
1.0
  9
$DIMASZ
 40
3.302
  9
$DIMEXO
 40
1.0
  9
$DIMDLI
 40
3.75
  9
$DIMRND
 40
0.0
  9
$DIMDLE
 40
0.0
  9
$DIMEXE
 40
1.0
  9
$DIMTP
 40
0.0
  9
$DIMTM
 40
0.0
  9
$DIMTXT
 40
3.5
  9
$DIMCEN
 40
2.5
  9
$DIMTSZ
 40
0.0
  9
$DIMTOL
 70
     0
  9
$DIMLIM
 70
     0
  9
$DIMTIH
 70
     1
  9
$DIMTOH
 70
     1
  9
$DIMSE1
 70
     0
  9
$DIMSE2
 70
     0
  9
$DIMTAD
 70
     1
  9
$DIMZIN
 70
     1
  9
$DIMBLK
  1

  9
$DIMASO
 70
     1
  9
$DIMSHO
 70
     1
  9
$DIMPOST
  1

  9
$DIMAPOST
  1

  9
$DIMALT
 70
     0
  9
$DIMALTD
 70
     3
  9
$DIMALTF
 40
0.0393700787
  9
$DIMLFAC
 40
1.0
  9
$DIMTOFL
 70
     1
  9
$DIMTVP
 40
0.0
  9
$DIMTIX
 70
     0
  9
$DIMSOXD
 70
     0
  9
$DIMSAH
 70
     0
  9
$DIMBLK1
  1

  9
$DIMBLK2
  1

  9
$DIMSTYLE
  2
ISO-25
  9
$DIMCLRD
 70
     0
  9
$DIMCLRE
 70
     0
  9
$DIMCLRT
 70
     0
  9
$DIMTFAC
 40
1.0
  9
$DIMGAP
 40
1.524
  9
$DIMJUST
 70
     0
  9
$DIMSD1
 70
     0
  9
$DIMSD2
 70
     0
  9
$DIMTOLJ
 70
     0
  9
$DIMTZIN
 70
     1
  9
$DIMALTZ
 70
     0
  9
$DIMALTTZ
 70
     0
  9
$DIMUPT
 70
     0
  9
$DIMDEC
 70
     2
  9
$DIMTDEC
 70
     2
  9
$DIMALTU
 70
     2
  9
$DIMALTTD
 70
     3
  9
$DIMTXSTY
  7
Standard
  9
$DIMAUNIT
 70
     0
  9
$DIMADEC
 70
     2
  9
$DIMALTRND
 40
0.0
  9
$DIMAZIN
 70
     0
  9
$DIMDSEP
 70
    44
  9
$DIMATFIT
 70
     3
  9
$DIMFRAC
 70
     0
  9
$DIMLDRBLK
  1

  9
$DIMLUNIT
 70
     2
  9
$DIMLWD
 70
    -2
  9
$DIMLWE
 70
    -2
  9
$DIMTMOVE
 70
     0
  9
$LUNITS
 70
     2
  9
$LUPREC
 70
     2
  9
$SKETCHINC
 40
1.0
  9
$FILLETRAD
 40
10.0
  9
$AUNITS
 70
     0
  9
$AUPREC
 70
     2
  9
$MENU
  1
.
  9
$ELEVATION
 40
0.0
  9
$PELEVATION
 40
0.0
  9
$THICKNESS
 40
0.0
  9
$LIMCHECK
 70
     0
  9
$CHAMFERA
 40
0.0
  9
$CHAMFERB
 40
0.0
  9
$CHAMFERC
 40
0.0
  9
$CHAMFERD
 40
0.0
  9
$SKPOLY
 70
     0
  9
$TDCREATE
 40
2459257.498983785
  9
$TDUCREATE
 40
2459257.498983785
  9
$TDUPDATE
 40
2459257.499017766
  9
$TDUUPDATE
 40
2459257.499017766
  9
$TDINDWG
 40
0.0000000116
  9
$TDUSRTIMER
 40
0.0000000116
  9
$USRTIMER
 70
     1
  9
$ANGBASE
 50
0.0
  9
$ANGDIR
 70
     0
  9
$PDMODE
 70
     0
  9
$PDSIZE
 40
-1.0
  9
$PLINEWID
 40
0.0
  9
$SPLFRAME
 70
     0
  9
$SPLINETYPE
 70
     6
  9
$SPLINESEGS
 70
     8
  9
$HANDSEED
  5
441
  9
$SURFTAB1
 70
     6
  9
$SURFTAB2
 70
     6
  9
$SURFTYPE
 70
     6
  9
$SURFU
 70
     6
  9
$SURFV
 70
     6
  9
$UCSBASE
  2

  9
$UCSNAME
  2

  9
$UCSORG
 10
0.0
 20
0.0
 30
0.0
  9
$UCSXDIR
 10
1.0
 20
0.0
 30
0.0
  9
$UCSYDIR
 10
0.0
 20
1.0
 30
0.0
  9
$UCSORTHOREF
  2

  9
$UCSORTHOVIEW
 70
     0
  9
$UCSORGTOP
 10
0.0
 20
0.0
 30
0.0
  9
$UCSORGBOTTOM
 10
0.0
 20
0.0
 30
0.0
  9
$UCSORGLEFT
 10
0.0
 20
0.0
 30
0.0
  9
$UCSORGRIGHT
 10
0.0
 20
0.0
 30
0.0
  9
$UCSORGFRONT
 10
0.0
 20
0.0
 30
0.0
  9
$UCSORGBACK
 10
0.0
 20
0.0
 30
0.0
  9
$PUCSBASE
  2

  9
$PUCSNAME
  2

  9
$PUCSORG
 10
0.0
 20
0.0
 30
0.0
  9
$PUCSXDIR
 10
1.0
 20
0.0
 30
0.0
  9
$PUCSYDIR
 10
0.0
 20
1.0
 30
0.0
  9
$PUCSORTHOREF
  2

  9
$PUCSORTHOVIEW
 70
     0
  9
$PUCSORGTOP
 10
0.0
 20
0.0
 30
0.0
  9
$PUCSORGBOTTOM
 10
0.0
 20
0.0
 30
0.0
  9
$PUCSORGLEFT
 10
0.0
 20
0.0
 30
0.0
  9
$PUCSORGRIGHT
 10
0.0
 20
0.0
 30
0.0
  9
$PUCSORGFRONT
 10
0.0
 20
0.0
 30
0.0
  9
$PUCSORGBACK
 10
0.0
 20
0.0
 30
0.0
  9
$USERI1
 70
     0
  9
$USERI2
 70
     0
  9
$USERI3
 70
     0
  9
$USERI4
 70
     0
  9
$USERI5
 70
     0
  9
$USERR1
 40
0.0
  9
$USERR2
 40
0.0
  9
$USERR3
 40
0.0
  9
$USERR4
 40
0.0
  9
$USERR5
 40
0.0
  9
$WORLDVIEW
 70
     1
  9
$SHADEDGE
 70
     3
  9
$SHADEDIF
 70
    70
  9
$TILEMODE
 70
     1
  9
$MAXACTVP
 70
    64
  9
$PINSBASE
 10
0.0
 20
0.0
 30
0.0
  9
$PLIMCHECK
 70
     0
  9
$PEXTMIN
 10
-279.2
 20
0.0
 30
0.0
  9
$PEXTMAX
 10
279.2
 20
400.0
 30
0.0
  9
$PLIMMIN
 10
-322.6552529183
 20
-16.2957198444
  9
$PLIMMAX
 10
322.6552529183
 20
439.9844357977
  9
$UNITMODE
 70
     0
  9
$VISRETAIN
 70
     1
  9
$PLINEGEN
 70
     0
  9
$PSLTSCALE
 70
     1
  9
$TREEDEPTH
 70
  3020
  9
$CMLSTYLE
  2
Standard
  9
$CMLJUST
 70
     0
  9
$CMLSCALE
 40
20.0
  9
$PROXYGRAPHICS
 70
     1
  9
$MEASUREMENT
 70
     1
  9
$CELWEIGHT
370
    -1
  9
$ENDCAPS
280
     0
  9
$JOINSTYLE
280
     0
  9
$LWDISPLAY
290
     1
  9
$INSUNITS
 70
     4
  9
$HYPERLINKBASE
  1

  9
$STYLESHEET
  1

  9
$XEDIT
290
     1
  9
$CEPSNTYPE
380
     0
  9
$PSTYLEMODE
290
     1
  9
$FINGERPRINTGUID
  2
{391d830f-19ef-425a-bf45-2c9964ba22ca}
  9
$VERSIONGUID
  2
{FAEB1C32-E019-11D5-929B-00C0DF256EC4}
  9
$EXTNAMES
290
     1
  9
$PSVPSCALE
 40
0.0
  9
$OLESTARTUP
290
     0
  0
ENDSEC
  0
SECTION
  2
CLASSES
  0
CLASS
  1
ACDBDICTIONARYWDFLT
  2
AcDbDictionaryWithDefault
  3
ObjectDBX Classes
 90
        0
280
     0
281
     0
  0
CLASS
  1
VISUALSTYLE
  2
AcDbVisualStyle
  3
ObjectDBX Classes
 90
     4095
280
     0
281
     0
  0
CLASS
  1
MATERIAL
  2
AcDbMaterial
  3
ObjectDBX Classes
 90
     1153
280
     0
281
     0
  0
CLASS
  1
SCALE
  2
AcDbScale
  3
ObjectDBX Classes
 90
     1153
280
     0
281
     0
  0
CLASS
  1
TABLESTYLE
  2
AcDbTableStyle
  3
ObjectDBX Classes
 90
     4095
280
     0
281
     0
  0
CLASS
  1
MLEADERSTYLE
  2
AcDbMLeaderStyle
  3
ACDB_MLEADERSTYLE_CLASS
 90
     4095
280
     0
281
     0
  0
CLASS
  1
SUN
  2
AcDbSun
  3
SCENEOE
 90
     1153
280
     0
281
     0
  0
CLASS
  1
ACDBPLACEHOLDER
  2
AcDbPlaceHolder
  3
ObjectDBX Classes
 90
        0
280
     0
281
     0
  0
CLASS
  1
LAYOUT
  2
AcDbLayout
  3
ObjectDBX Classes
 90
        0
280
     0
281
     0
  0
ENDSEC
  0
SECTION
  2
TABLES
  0
TABLE
  2
VPORT
  5
8
330
0
100
AcDbSymbolTable
 70
     1
  0
VPORT
  5
29
330
8
100
AcDbSymbolTableRecord
100
AcDbViewportTableRecord
  2
*Active
 70
     0
 10
0.0
 20
0.0
 11
1.0
 21
1.0
 12
0.0
 22
200.0
 13
0.0
 23
0.0
 14
10.0
 24
10.0
 15
10.0
 25
10.0
 16
0.0
 26
0.0
 36
1.0
 17
0.0
 27
0.0
 37
0.0
 40
408.0
 41
1.396
 42
50.0
 43
0.0
 44
0.0
 50
0.0
 51
0.0
 71
     0
 72
   100
 73
     1
 74
     3
 75
     0
 76
     0
 77
     0
 78
     0
281
     0
 65
     1
110
0.0
120
0.0
130
0.0
111
1.0
121
0.0
131
0.0
112
0.0
122
1.0
132
0.0
 79
     0
146
0.0
  0
ENDTAB
  0
TABLE
  2
LTYPE
  5
5
330
0
100
AcDbSymbolTable
 70
     6
  0
LTYPE
  5
14
330
5
100
AcDbSymbolTableRecord
100
AcDbLinetypeTableRecord
  2
ByBlock
 70
     0
  3

 72
    65
 73
     0
 40
0.0
  0
LTYPE
  5
15
330
5
100
AcDbSymbolTableRecord
100
AcDbLinetypeTableRecord
  2
ByLayer
 70
     0
  3

 72
    65
 73
     0
 40
0.0
  0
LTYPE
  5
16
330
5
100
AcDbSymbolTableRecord
100
AcDbLinetypeTableRecord
  2
Continuous
 70
     0
  3
Solid line
 72
    65
 73
     0
 40
0.0
  0
LTYPE
  5
6E
330
5
100
AcDbSymbolTableRecord
100
AcDbLinetypeTableRecord
  2
HIDDEN
 70
     0
  3
Hidden __ __ __ __ __ __ __ __ __ __ __ __ __ __
 72
    65
 73
     2
 40
1.905
 49
1.27
 74
     0
 49
-0.635
 74
     0
  0
LTYPE
  5
6F
330
5
100
AcDbSymbolTableRecord
100
AcDbLinetypeTableRecord
  2
PHANTOM
 70
     0
  3
Phantom ______  __  __  ______  __  __  ______
 72
    65
 73
     6
 40
12.7
 49
6.35
 74
     0
 49
-1.27
 74
     0
 49
1.27
 74
     0
 49
-1.27
 74
     0
 49
1.27
 74
     0
 49
-1.27
 74
     0
  0
LTYPE
  5
70
330
5
100
AcDbSymbolTableRecord
100
AcDbLinetypeTableRecord
  2
CENTER
 70
     0
  3
Center ____ _ ____ _ ____ _ ____ _ ____ _ ____
 72
    65
 73
     4
 40
10.16
 49
6.35
 74
     0
 49
-1.27
 74
     0
 49
1.27
 74
     0
 49
-1.27
 74
     0
  0
LTYPE
  5
71
330
5
100
AcDbSymbolTableRecord
100
AcDbLinetypeTableRecord
  2
CENTERX2
 70
     0
  3
Center (2x) ________  __  ________  __  _____
 72
    65
 73
     4
 40
20.32
 49
12.7
 74
     0
 49
-2.54
 74
     0
 49
2.54
 74
     0
 49
-2.54
 74
     0
  0
LTYPE
  5
72
330
5
100
AcDbSymbolTableRecord
100
AcDbLinetypeTableRecord
  2
DOT2
 70
     0
  3
Dot (.5x) ........................................
 72
    65
 73
     2
 40
0.635
 49
0.0
 74
     0
 49
-0.635
 74
     0
  0
ENDTAB
  0
TABLE
  2
LAYER
  5
2
330
0
100
AcDbSymbolTable
 70
     1
  0
LAYER
  5
10
330
2
100
AcDbSymbolTableRecord
100
AcDbLayerTableRecord
  2
0
 70
     0
 62
     7
  6
Continuous
370
    -3
390
F
  0
ENDTAB
  0
TABLE
  2
STYLE
  5
3
330
0
100
AcDbSymbolTable
 70
     1
  0
STYLE
  5
11
330
3
100
AcDbSymbolTableRecord
100
AcDbTextStyleTableRecord
  2
Standard
 70
     0
 40
0.0
 41
1.0
 50
0.0
 71
     0
 42
3.5
  3
txt
  4

  0
ENDTAB
  0
TABLE
  2
VIEW
  5
6
330
0
100
AcDbSymbolTable
 70
     0
  0
ENDTAB
  0
TABLE
  2
UCS
  5
7
330
0
100
AcDbSymbolTable
 70
     0
  0
ENDTAB
  0
TABLE
  2
APPID
  5
9
330
0
100
AcDbSymbolTable
 70
     1
  0
APPID
  5
12
330
9
100
AcDbSymbolTableRecord
100
AcDbRegAppTableRecord
  2
ACAD
 70
     0
  0
ENDTAB
  0
TABLE
  2
DIMSTYLE
  5
A
330
0
100
AcDbSymbolTable
 70
     1
100
AcDbDimStyleTable
  0
DIMSTYLE
105
27
330
A
100
AcDbSymbolTableRecord
100
AcDbDimStyleTableRecord
  2
ISO-25
 70
     0
 41
2.5
 42
0.625
 43
3.75
 44
1.25
 73
     0
 74
     0
 77
     1
 78
     8
140
2.5
141
2.5
143
0.0393700787
147
0.625
171
     3
172
     1
178
     0
271
     2
272
     2
274
     3
278
    44
283
     0
284
     8
340
11
  0
ENDTAB
  0
TABLE
  2
BLOCK_RECORD
  5
1
330
0
100
AcDbSymbolTable
 70
     3
  0
BLOCK_RECORD
  5
1F
330
1
100
AcDbSymbolTableRecord
100
AcDbBlockTableRecord
  2
*Model_Space
340
22
  0
BLOCK_RECORD
  5
1B
330
1
100
AcDbSymbolTableRecord
100
AcDbBlockTableRecord
  2
*Paper_Space
340
1E
  0
BLOCK_RECORD
  5
23
330
1
100
AcDbSymbolTableRecord
100
AcDbBlockTableRecord
  2
*Paper_Space0
340
26
  0
BLOCK_RECORD
  5
1AE
330
1
100
AcDbSymbolTableRecord
100
AcDbBlockTableRecord
  2
*Paper_Space1
340
1AF
  0
BLOCK_RECORD
  5
2A3
330
1
100
AcDbSymbolTableRecord
100
AcDbBlockTableRecord
  2
*Paper_Space2
340
2A4
  0
ENDTAB
  0
ENDSEC
  0
SECTION
  2
BLOCKS
  0
BLOCK
  5
20
330
1F
100
AcDbEntity
  8
0
100
AcDbBlockBegin
  2
*Model_Space
 70
     0
 10
0.0
 20
0.0
 30
0.0
  3
*Model_Space
  1

  0
ENDBLK
  5
21
330
1F
100
AcDbEntity
  8
0
100
AcDbBlockEnd
  0
BLOCK
  5
1C
330
1B
100
AcDbEntity
 67
     1
  8
0
100
AcDbBlockBegin
  2
*Paper_Space
 70
     0
 10
0.0
 20
0.0
 30
0.0
  3
*Paper_Space
  1

  0
ENDBLK
  5
1D
330
1B
100
AcDbEntity
 67
     1
  8
0
100
AcDbBlockEnd
  0
BLOCK
  5
24
330
23
100
AcDbEntity
  8
0
100
AcDbBlockBegin
  2
*Paper_Space0
 70
     0
 10
0.0
 20
0.0
 30
0.0
  3
*Paper_Space0
  1

  0
LINE
  5
1A0
330
23
100
AcDbEntity
  8
0
  6
Continuous
 62
     7
370
    25
100
AcDbLine
 10
204.2
 20
0.0
 30
0.0
 11
-226.0
 21
0.0
 31
0.0
  0
LINE
  5
1A1
330
23
100
AcDbEntity
  8
0
  6
Continuous
 62
     7
370
    25
100
AcDbLine
 10
-226.0
 20
0.0
 30
0.0
 11
-226.0
 21
400.0
 31
0.0
  0
LINE
  5
1A2
330
23
100
AcDbEntity
  8
0
  6
Continuous
 62
     7
370
    25
100
AcDbLine
 10
-226.0
 20
400.0
 30
0.0
 11
186.0
 21
400.0
 31
0.0
  0
LINE
  5
1A3
330
23
100
AcDbEntity
  8
0
  6
Continuous
 62
     7
370
    25
100
AcDbLine
 10
186.0
 20
400.0
 30
0.0
 11
186.0
 21
0.0
 31
0.0
  0
LINE
  5
1A4
330
23
100
AcDbEntity
  8
0
  6
Continuous
 62
     7
370
    25
100
AcDbLine
 10
186.0
 20
394.5
 30
0.0
 11
204.5
 21
394.5
 31
0.0
  0
LINE
  5
1A5
330
23
100
AcDbEntity
  8
0
  6
Continuous
 62
     7
370
    25
100
AcDbLine
 10
194.5
 20
317.9
 30
0.0
 11
194.5
 21
394.5
 31
0.0
  0
LINE
  5
1A6
330
23
100
AcDbEntity
  8
0
  6
Continuous
 62
     7
370
    25
100
AcDbLine
 10
204.5
 20
317.9
 30
0.0
 11
186.0
 21
317.9
 31
0.0
  0
LINE
  5
1A7
330
23
100
AcDbEntity
  8
0
  6
Continuous
 62
     7
370
    25
100
AcDbLine
 10
204.5
 20
394.5
 30
0.0
 11
204.5
 21
317.9
 31
0.0
  0
LINE
  5
1A8
330
23
100
AcDbEntity
  8
0
  6
Continuous
 62
     7
370
    25
100
AcDbLine
 10
204.2
 20
304.0
 30
0.0
 11
186.0
 21
304.0
 31
0.0
  0
LINE
  5
1A9
330
23
100
AcDbEntity
  8
0
  6
Continuous
 62
     7
370
    25
100
AcDbLine
 10
194.2
 20
0.0
 30
0.0
 11
194.2
 21
305.0
 31
0.0
  0
LINE
  5
1AA
330
23
100
AcDbEntity
  8
0
  6
Continuous
 62
     7
370
    25
100
AcDbLine
 10
204.2
 20
304.0
 30
0.0
 11
204.2
 21
0.0
 31
0.0
  0
LINE
  5
1AB
330
23
100
AcDbEntity
  8
0
  6
Continuous
 62
     7
370
    25
100
AcDbLine
 10
187.0
 20
305.0
 30
0.0
 11
203.2
 21
305.0
 31
0.0
  0
ARC
  5
1AC
330
23
100
AcDbEntity
  8
0
  6
Continuous
 62
     7
370
    25
100
AcDbCircle
 10
203.2
 20
304.0
 30
0.0
 40
1.0
100
AcDbArc
 50
0.0
 51
90.0
  0
ARC
  5
1AD
330
23
100
AcDbEntity
  8
0
  6
Continuous
 62
     7
370
    25
100
AcDbCircle
 10
187.0
 20
304.0
 30
0.0
 40
1.000000000000114
100
AcDbArc
 50
90.0
 51
180.0
  0
VIEWPORT
  5
43B
330
23
100
AcDbEntity
  8
0
100
AcDbViewport
 10
0.0
 20
0.0
 30
0.0
 40
205.6
 41
156.0
 68
     1
 69
     1
 12
0.0
 22
200.0
 13
0.0
 23
0.0
 14
10.0
 24
10.0
 15
10.0
 25
10.0
 16
0.0
 26
0.0
 36
1.0
 17
0.0
 27
0.0
 37
0.0
 42
50.0
 43
0.0
 44
0.0
 45
432.1624902724
 50
0.0
 51
0.0
 72
   100
 90
   557152
  1

281
     0
 71
     1
 74
     0
110
0.0
120
0.0
130
0.0
111
1.0
121
0.0
131
0.0
112
0.0
122
1.0
132
0.0
 79
     0
146
0.0
  0
ENDBLK
  5
25
330
23
100
AcDbEntity
  8
0
100
AcDbBlockEnd
  0
BLOCK
  5
1B0
330
1AE
100
AcDbEntity
  8
0
100
AcDbBlockBegin
  2
*Paper_Space1
 70
     0
 10
0.0
 20
0.0
 30
0.0
  3
*Paper_Space1
  1

  0
LINE
  5
23E
330
1AE
100
AcDbEntity
  8
0
  6
Continuous
 62
     7
370
    25
100
AcDbLine
 10
-254.1
 20
188.75
 30
0.0
 11
-236.0
 21
188.75
 31
0.0
  0
LINE
  5
23F
330
1AE
100
AcDbEntity
  8
0
  6
Continuous
 62
     7
370
    25
100
AcDbLine
 10
-236.0
 20
198.25
 30
0.0
 11
-254.1
 21
198.25
 31
0.0
  0
LINE
  5
240
330
1AE
100
AcDbEntity
  8
0
  6
Continuous
 62
     7
370
    25
100
AcDbLine
 10
254.1
 20
198.25
 30
0.0
 11
236.0
 21
198.25
 31
0.0
  0
LINE
  5
241
330
1AE
100
AcDbEntity
  8
0
  6
Continuous
 62
     7
370
    25
100
AcDbLine
 10
236.0
 20
188.75
 30
0.0
 11
254.1
 21
188.75
 31
0.0
  0
LINE
  5
242
330
1AE
100
AcDbEntity
  8
0
  6
Continuous
 62
     7
370
    25
100
AcDbLine
 10
239.2
 20
118.0
 30
0.0
 11
239.2
 21
98.0
 31
0.0
  0
LINE
  5
243
330
1AE
100
AcDbEntity
  8
0
  6
Continuous
 62
     7
370
    25
100
AcDbLine
 10
255.2
 20
98.0
 30
0.0
 11
255.2
 21
118.0
 31
0.0
  0
LINE
  5
244
330
1AE
100
AcDbEntity
  8
0
  6
Continuous
 62
     7
370
    25
100
AcDbLine
 10
242.2
 20
98.0
 30
0.0
 11
242.2
 21
-167.8
 31
0.0
  0
LINE
  5
245
330
1AE
100
AcDbEntity
  8
0
  6
Continuous
 62
     7
370
    25
100
AcDbLine
 10
252.2
 20
-167.8
 30
0.0
 11
252.2
 21
98.0
 31
0.0
  0
LINE
  5
246
330
1AE
100
AcDbEntity
  8
0
  6
Continuous
 62
     7
370
    25
100
AcDbLine
 10
-253.8
 20
118.0
 30
0.0
 11
-253.8
 21
98.0
 31
0.0
  0
LINE
  5
247
330
1AE
100
AcDbEntity
  8
0
  6
Continuous
 62
     7
370
    25
100
AcDbLine
 10
-237.8
 20
98.0
 30
0.0
 11
-237.8
 21
118.0
 31
0.0
  0
LINE
  5
248
330
1AE
100
AcDbEntity
  8
0
  6
Continuous
 62
     7
370
    25
100
AcDbLine
 10
-250.8
 20
98.0
 30
0.0
 11
-250.8
 21
-167.8
 31
0.0
  0
LINE
  5
249
330
1AE
100
AcDbEntity
  8
0
  6
Continuous
 62
     7
370
    25
100
AcDbLine
 10
-240.8
 20
-167.8
 30
0.0
 11
-240.8
 21
98.0
 31
0.0
  0
LINE
  5
24A
330
1AE
100
AcDbEntity
  8
0
  6
Continuous
 62
     7
370
    25
100
AcDbLine
 10
-208.1
 20
224.1
 30
0.0
 11
-254.1
 21
224.1
 31
0.0
  0
LINE
  5
24B
330
1AE
100
AcDbEntity
  8
0
  6
Continuous
 62
     7
370
    25
100
AcDbLine
 10
-208.1
 20
224.1
 30
0.0
 11
-208.1
 21
226.0
 31
0.0
  0
LINE
  5
24C
330
1AE
100
AcDbEntity
  8
0
  6
Continuous
 62
     7
370
    25
100
AcDbLine
 10
-256.0
 20
178.1
 30
0.0
 11
-254.1
 21
178.1
 31
0.0
  0
LINE
  5
24D
330
1AE
100
AcDbEntity
  8
0
  6
Continuous
 62
     7
370
    25
100
AcDbLine
 10
-208.1
 20
226.0
 30
0.0
 11
-256.0
 21
226.0
 31
0.0
  0
LINE
  5
24E
330
1AE
100
AcDbEntity
  8
0
  6
Continuous
 62
     7
370
    25
100
AcDbLine
 10
-254.1
 20
178.1
 30
0.0
 11
-254.1
 21
224.1
 31
0.0
  0
LINE
  5
24F
330
1AE
100
AcDbEntity
  8
0
  6
Continuous
 62
     7
370
    25
100
AcDbLine
 10
-261.0
 20
226.0
 30
0.0
 11
-279.2
 21
226.0
 31
0.0
  0
LINE
  5
250
330
1AE
100
AcDbEntity
  8
0
  6
Continuous
 62
     7
370
    25
100
AcDbLine
 10
-279.2
 20
226.0
 30
0.0
 11
-279.2
 21
-194.5
 31
0.0
  0
LINE
  5
251
330
1AE
100
AcDbEntity
  8
0
  6
Continuous
 62
     7
370
    25
100
AcDbLine
 10
-261.0
 20
226.0
 30
0.0
 11
-261.0
 21
-186.0
 31
0.0
  0
LINE
  5
252
330
1AE
100
AcDbEntity
  8
0
  6
Continuous
 62
     7
370
    25
100
AcDbLine
 10
-256.0
 20
226.0
 30
0.0
 11
-256.0
 21
177.0
 31
0.0
  0
LINE
  5
253
330
1AE
100
AcDbEntity
  8
0
  6
Continuous
 62
     7
370
    25
100
AcDbLine
 10
-257.8
 20
178.0
 30
0.0
 11
-256.0
 21
178.0
 31
0.0
  0
LINE
  5
254
330
1AE
100
AcDbEntity
  8
0
  6
Continuous
 62
     7
370
    25
100
AcDbLine
 10
-257.8
 20
209.0
 30
0.0
 11
-256.0
 21
209.0
 31
0.0
  0
LINE
  5
255
330
1AE
100
AcDbEntity
  8
0
  6
Continuous
 62
     7
370
    25
100
AcDbLine
 10
-257.8
 20
177.0
 30
0.0
 11
-257.8
 21
210.0
 31
0.0
  0
LINE
  5
256
330
1AE
100
AcDbEntity
  8
0
  6
Continuous
 62
     7
370
    25
100
AcDbLine
 10
-259.0
 20
211.2
 30
0.0
 11
-261.0
 21
211.2
 31
0.0
  0
LINE
  5
257
330
1AE
100
AcDbEntity
  8
0
  6
Continuous
 62
     7
370
    25
100
AcDbLine
 10
-261.0
 20
213.0
 30
0.0
 11
-259.0
 21
213.0
 31
0.0
  0
LINE
  5
258
330
1AE
100
AcDbEntity
  8
0
  6
Continuous
 62
     7
370
    25
100
AcDbLine
 10
-261.0
 20
175.8
 30
0.0
 11
-259.0
 21
175.8
 31
0.0
  0
LINE
  5
259
330
1AE
100
AcDbEntity
  8
0
  6
Continuous
 62
     7
370
    25
100
AcDbLine
 10
-261.0
 20
174.0
 30
0.0
 11
-259.0
 21
174.0
 31
0.0
  0
LINE
  5
25A
330
1AE
100
AcDbEntity
  8
0
  6
Continuous
 62
     7
370
    25
100
AcDbLine
 10
-236.0
 20
198.25
 30
0.0
 11
-236.0
 21
188.75
 31
0.0
  0
LINE
  5
25B
330
1AE
100
AcDbEntity
  8
0
  6
Continuous
 62
     7
370
    25
100
AcDbLine
 10
257.8
 20
209.0
 30
0.0
 11
256.0
 21
209.0
 31
0.0
  0
LINE
  5
25C
330
1AE
100
AcDbEntity
  8
0
  6
Continuous
 62
     7
370
    25
100
AcDbLine
 10
257.8
 20
177.0
 30
0.0
 11
257.8
 21
210.0
 31
0.0
  0
LINE
  5
25D
330
1AE
100
AcDbEntity
  8
0
  6
Continuous
 62
     7
370
    25
100
AcDbLine
 10
257.8
 20
178.0
 30
0.0
 11
256.0
 21
178.0
 31
0.0
  0
LINE
  5
25E
330
1AE
100
AcDbEntity
  8
0
  6
Continuous
 62
     7
370
    25
100
AcDbLine
 10
256.0
 20
226.0
 30
0.0
 11
256.0
 21
177.0
 31
0.0
  0
LINE
  5
25F
330
1AE
100
AcDbEntity
  8
0
  6
Continuous
 62
     7
370
    25
100
AcDbLine
 10
261.0
 20
174.0
 30
0.0
 11
259.0
 21
174.0
 31
0.0
  0
LINE
  5
260
330
1AE
100
AcDbEntity
  8
0
  6
Continuous
 62
     7
370
    25
100
AcDbLine
 10
259.0
 20
175.8
 30
0.0
 11
261.0
 21
175.8
 31
0.0
  0
LINE
  5
261
330
1AE
100
AcDbEntity
  8
0
  6
Continuous
 62
     7
370
    25
100
AcDbLine
 10
261.0
 20
213.0
 30
0.0
 11
259.0
 21
213.0
 31
0.0
  0
LINE
  5
262
330
1AE
100
AcDbEntity
  8
0
  6
Continuous
 62
     7
370
    25
100
AcDbLine
 10
261.0
 20
211.2
 30
0.0
 11
259.0
 21
211.2
 31
0.0
  0
LINE
  5
263
330
1AE
100
AcDbEntity
  8
0
  6
Continuous
 62
     7
370
    25
100
AcDbLine
 10
236.0
 20
188.75
 30
0.0
 11
236.0
 21
198.25
 31
0.0
  0
LINE
  5
264
330
1AE
100
AcDbEntity
  8
0
  6
Continuous
 62
     7
370
    25
100
AcDbLine
 10
261.0
 20
186.0
 30
0.0
 11
257.8
 21
186.0
 31
0.0
  0
LINE
  5
265
330
1AE
100
AcDbEntity
  8
0
  6
Continuous
 62
     7
370
    25
100
AcDbLine
 10
254.1
 20
186.0
 30
0.0
 11
-254.1
 21
186.0
 31
0.0
  0
LINE
  5
266
330
1AE
100
AcDbEntity
  8
0
  6
Continuous
 62
     7
370
    25
100
AcDbLine
 10
-257.8
 20
186.0
 30
0.0
 11
-261.0
 21
186.0
 31
0.0
  0
LINE
  5
267
330
1AE
100
AcDbEntity
  8
0
  6
Continuous
 62
     7
370
    25
100
AcDbLine
 10
-279.2
 20
-186.0
 30
0.0
 11
279.2
 21
-186.0
 31
0.0
  0
LINE
  5
268
330
1AE
100
AcDbEntity
  8
0
  6
Continuous
 62
     7
370
    25
100
AcDbLine
 10
261.0
 20
226.0
 30
0.0
 11
261.0
 21
-186.0
 31
0.0
  0
LINE
  5
269
330
1AE
100
AcDbEntity
  8
0
  6
Continuous
 62
     7
370
    25
100
AcDbLine
 10
261.0
 20
226.0
 30
0.0
 11
279.2
 21
226.0
 31
0.0
  0
LINE
  5
26A
330
1AE
100
AcDbEntity
  8
0
  6
Continuous
 62
     7
370
    25
100
AcDbLine
 10
279.2
 20
226.0
 30
0.0
 11
279.2
 21
-194.2
 31
0.0
  0
LINE
  5
26B
330
1AE
100
AcDbEntity
  8
0
  6
Continuous
 62
     7
370
    25
100
AcDbLine
 10
277.8
 20
-186.0
 30
0.0
 11
277.8
 21
-194.5
 31
0.0
  0
LINE
  5
26C
330
1AE
100
AcDbEntity
  8
0
  6
Continuous
 62
     7
370
    25
100
AcDbLine
 10
-269.2
 20
-204.5
 30
0.0
 11
267.8
 21
-204.5
 31
0.0
  0
LINE
  5
26D
330
1AE
100
AcDbEntity
  8
0
  6
Continuous
 62
     7
370
    25
100
AcDbLine
 10
254.1
 20
224.1
 30
0.0
 11
208.1
 21
224.1
 31
0.0
  0
LINE
  5
26E
330
1AE
100
AcDbEntity
  8
0
  6
Continuous
 62
     7
370
    25
100
AcDbLine
 10
208.1
 20
224.1
 30
0.0
 11
208.1
 21
226.0
 31
0.0
  0
LINE
  5
26F
330
1AE
100
AcDbEntity
  8
0
  6
Continuous
 62
     7
370
    25
100
AcDbLine
 10
256.0
 20
226.0
 30
0.0
 11
208.1
 21
226.0
 31
0.0
  0
LINE
  5
270
330
1AE
100
AcDbEntity
  8
0
  6
Continuous
 62
     7
370
    25
100
AcDbLine
 10
254.1
 20
178.1
 30
0.0
 11
256.0
 21
178.1
 31
0.0
  0
LINE
  5
271
330
1AE
100
AcDbEntity
  8
0
  6
Continuous
 62
     7
370
    25
100
AcDbLine
 10
254.1
 20
178.1
 30
0.0
 11
254.1
 21
224.1
 31
0.0
  0
LINE
  5
272
330
1AE
100
AcDbEntity
  8
0
  6
Continuous
 62
     7
370
    25
100
AcDbLine
 10
239.2
 20
98.0
 30
0.0
 11
255.2
 21
98.0
 31
0.0
  0
LINE
  5
273
330
1AE
100
AcDbEntity
  8
0
  6
Continuous
 62
     7
370
    25
100
AcDbLine
 10
239.2
 20
118.0
 30
0.0
 11
255.2
 21
118.0
 31
0.0
  0
LINE
  5
274
330
1AE
100
AcDbEntity
  8
0
  6
Continuous
 62
     7
370
    25
100
AcDbLine
 10
217.2
 20
-167.8
 30
0.0
 11
217.2
 21
124.0
 31
0.0
  0
LINE
  5
275
330
1AE
100
AcDbEntity
  8
0
  6
Continuous
 62
     7
370
    25
100
AcDbLine
 10
199.2999687854
 20
125.5
 30
0.0
 11
199.2999687854
 21
124.0
 31
0.0
  0
LINE
  5
276
330
1AE
100
AcDbEntity
  8
0
  6
Continuous
 62
     7
370
    25
100
AcDbLine
 10
218.2999687854
 20
125.5
 30
0.0
 11
199.2999687854
 21
125.5
 31
0.0
  0
LINE
  5
277
330
1AE
100
AcDbEntity
  8
0
  6
Continuous
 62
     7
370
    25
100
AcDbLine
 10
245.2
 20
118.0
 30
0.0
 11
245.2
 21
124.0
 31
0.0
  0
LINE
  5
278
330
1AE
100
AcDbEntity
  8
0
  6
Continuous
 62
     7
370
    25
100
AcDbLine
 10
252.2
 20
124.0
 30
0.0
 11
218.2999687854
 21
124.0
 31
0.0
  0
LINE
  5
279
330
1AE
100
AcDbEntity
  8
0
  6
Continuous
 62
     7
370
    25
100
AcDbLine
 10
218.2999687854
 20
124.0
 30
0.0
 11
218.2999687854
 21
125.5
 31
0.0
  0
LINE
  5
27A
330
1AE
100
AcDbEntity
  8
0
  6
Continuous
 62
     7
370
    25
100
AcDbLine
 10
252.2
 20
124.0
 30
0.0
 11
252.2
 21
118.0
 31
0.0
  0
LINE
  5
27B
330
1AE
100
AcDbEntity
  8
0
  6
Continuous
 62
     7
370
    25
100
AcDbLine
 10
238.2
 20
108.0
 30
0.0
 11
238.2
 21
-167.8
 31
0.0
  0
LINE
  5
27C
330
1AE
100
AcDbEntity
  8
0
  6
Continuous
 62
     7
370
    25
100
AcDbLine
 10
-237.8
 20
118.0
 30
0.0
 11
-253.8
 21
118.0
 31
0.0
  0
LINE
  5
27D
330
1AE
100
AcDbEntity
  8
0
  6
Continuous
 62
     7
370
    25
100
AcDbLine
 10
-237.8
 20
98.0
 30
0.0
 11
-253.8
 21
98.0
 31
0.0
  0
LINE
  5
27E
330
1AE
100
AcDbEntity
  8
0
  6
Continuous
 62
     7
370
    25
100
AcDbLine
 10
-243.8
 20
118.0
 30
0.0
 11
-243.8
 21
124.0
 31
0.0
  0
LINE
  5
27F
330
1AE
100
AcDbEntity
  8
0
  6
Continuous
 62
     7
370
    25
100
AcDbLine
 10
-250.8
 20
124.0
 30
0.0
 11
-216.8999687854
 21
124.0
 31
0.0
  0
LINE
  5
280
330
1AE
100
AcDbEntity
  8
0
  6
Continuous
 62
     7
370
    25
100
AcDbLine
 10
-216.8999687854
 20
124.0
 30
0.0
 11
-216.8999687854
 21
125.5
 31
0.0
  0
LINE
  5
281
330
1AE
100
AcDbEntity
  8
0
  6
Continuous
 62
     7
370
    25
100
AcDbLine
 10
-216.8999687854
 20
125.5
 30
0.0
 11
-197.8999687854
 21
125.5
 31
0.0
  0
LINE
  5
282
330
1AE
100
AcDbEntity
  8
0
  6
Continuous
 62
     7
370
    25
100
AcDbLine
 10
-197.8999687854
 20
125.5
 30
0.0
 11
-197.8999687854
 21
124.0
 31
0.0
  0
LINE
  5
283
330
1AE
100
AcDbEntity
  8
0
  6
Continuous
 62
     7
370
    25
100
AcDbLine
 10
217.2
 20
124.0
 30
0.0
 11
-215.8
 21
124.0
 31
0.0
  0
LINE
  5
284
330
1AE
100
AcDbEntity
  8
0
  6
Continuous
 62
     7
370
    25
100
AcDbLine
 10
239.2
 20
108.0
 30
0.0
 11
-237.8
 21
108.0
 31
0.0
  0
LINE
  5
285
330
1AE
100
AcDbEntity
  8
0
  6
Continuous
 62
     7
370
    25
100
AcDbLine
 10
-215.8
 20
-167.8
 30
0.0
 11
-215.8
 21
124.0
 31
0.0
  0
LINE
  5
286
330
1AE
100
AcDbEntity
  8
0
  6
Continuous
 62
     7
370
    25
100
AcDbLine
 10
-236.8
 20
108.0
 30
0.0
 11
-236.8
 21
-167.8
 31
0.0
  0
LINE
  5
287
330
1AE
100
AcDbEntity
  8
0
  6
Continuous
 62
     7
370
    25
100
AcDbLine
 10
-250.8
 20
124.0
 30
0.0
 11
-250.8
 21
118.0
 31
0.0
  0
LINE
  5
288
330
1AE
100
AcDbEntity
  8
0
  6
Continuous
 62
     7
370
    25
100
AcDbLine
 10
147.2
 20
108.0
 30
0.0
 11
147.2
 21
124.0
 31
0.0
  0
LINE
  5
289
330
1AE
100
AcDbEntity
  8
0
  6
Continuous
 62
     7
370
    25
100
AcDbLine
 10
-145.8
 20
108.0
 30
0.0
 11
-145.8
 21
124.0
 31
0.0
  0
LINE
  5
28A
330
1AE
100
AcDbEntity
  8
0
  6
Continuous
 62
     7
370
    25
100
AcDbLine
 10
68.6285714286
 20
108.0
 30
0.0
 11
68.6285714286
 21
124.0
 31
0.0
  0
LINE
  5
28B
330
1AE
100
AcDbEntity
  8
0
  6
Continuous
 62
     7
370
    25
100
AcDbLine
 10
-67.2285714286
 20
108.0
 30
0.0
 11
-67.2285714286
 21
124.0
 31
0.0
  0
LINE
  5
28C
330
1AE
100
AcDbEntity
  8
0
  6
Continuous
 62
     7
370
    25
100
AcDbLine
 10
-17.2285714286
 20
108.0
 30
0.0
 11
-17.2285714286
 21
124.0
 31
0.0
  0
LINE
  5
28D
330
1AE
100
AcDbEntity
  8
0
  6
Continuous
 62
     7
370
    25
100
AcDbLine
 10
18.6285714286
 20
108.0
 30
0.0
 11
18.6285714286
 21
124.0
 31
0.0
  0
LINE
  5
28E
330
1AE
100
AcDbEntity
  8
0
  6
Continuous
 62
     7
370
    25
100
AcDbLine
 10
261.0
 20
-167.8
 30
0.0
 11
-261.0
 21
-167.8
 31
0.0
  0
LINE
  5
28F
330
1AE
100
AcDbEntity
  8
0
  6
Continuous
 62
     7
370
    25
100
AcDbLine
 10
278.2
 20
-187.0
 30
0.0
 11
279.2
 21
-186.0
 31
0.0
  0
LINE
  5
290
330
1AE
100
AcDbEntity
  8
0
  6
Continuous
 62
     7
370
    25
100
AcDbLine
 10
278.2
 20
-194.2
 30
0.0
 11
278.2
 21
-187.0
 31
0.0
  0
LINE
  5
291
330
1AE
100
AcDbEntity
  8
0
  6
Continuous
 62
     7
370
    25
100
AcDbLine
 10
278.2
 20
-194.2
 30
0.0
 11
279.2
 21
-194.2
 31
0.0
  0
LINE
  5
292
330
1AE
100
AcDbEntity
  8
0
  6
Continuous
 62
     8
370
    25
100
AcDbLine
 10
231.8851814027
 20
108.0
 30
0.0
 11
231.8851814027
 21
-167.8
 31
0.0
  0
LINE
  5
293
330
1AE
100
AcDbEntity
  8
0
  6
Continuous
 62
     8
370
    25
100
AcDbLine
 10
218.9618721488
 20
108.0
 30
0.0
 11
218.9618721488
 21
-167.8
 31
0.0
  0
LINE
  5
294
330
1AE
100
AcDbEntity
  8
0
  6
Continuous
 62
     8
370
    25
100
AcDbLine
 10
-230.4851814027
 20
108.0
 30
0.0
 11
-230.4851814027
 21
-167.8
 31
0.0
  0
LINE
  5
295
330
1AE
100
AcDbEntity
  8
0
  6
Continuous
 62
     8
370
    25
100
AcDbLine
 10
-217.5618721488
 20
108.0
 30
0.0
 11
-217.5618721488
 21
-167.8
 31
0.0
  0
LINE
  5
296
330
1AE
100
AcDbEntity
  8
0
  6
Continuous
 62
     8
370
    25
100
AcDbLine
 10
278.2
 20
-187.0
 30
0.0
 11
277.8
 21
-187.0
 31
0.0
  0
ARC
  5
297
330
1AE
100
AcDbEntity
  8
0
  6
Continuous
 62
     7
370
    25
100
AcDbCircle
 10
-259.0
 20
210.0
 30
0.0
 40
3.0
100
AcDbArc
 50
0.0
 51
90.0
  0
ARC
  5
298
330
1AE
100
AcDbEntity
  8
0
  6
Continuous
 62
     7
370
    25
100
AcDbCircle
 10
-259.0
 20
210.0
 30
0.0
 40
1.200000000000102
100
AcDbArc
 50
0.0
 51
90.0
  0
ARC
  5
299
330
1AE
100
AcDbEntity
  8
0
  6
Continuous
 62
     7
370
    25
100
AcDbCircle
 10
-259.0
 20
177.0
 30
0.0
 40
3.0
100
AcDbArc
 50
270.0
 51
0.0
  0
ARC
  5
29A
330
1AE
100
AcDbEntity
  8
0
  6
Continuous
 62
     7
370
    25
100
AcDbCircle
 10
-259.0
 20
177.0
 30
0.0
 40
1.200000000000017
100
AcDbArc
 50
270.0
 51
0.0
  0
ARC
  5
29B
330
1AE
100
AcDbEntity
  8
0
  6
Continuous
 62
     7
370
    25
100
AcDbCircle
 10
259.0
 20
177.0
 30
0.0
 40
1.200000000000159
100
AcDbArc
 50
180.0
 51
270.0
  0
ARC
  5
29C
330
1AE
100
AcDbEntity
  8
0
  6
Continuous
 62
     7
370
    25
100
AcDbCircle
 10
259.0
 20
177.0
 30
0.0
 40
3.0
100
AcDbArc
 50
180.0
 51
270.0
  0
ARC
  5
29D
330
1AE
100
AcDbEntity
  8
0
  6
Continuous
 62
     7
370
    25
100
AcDbCircle
 10
259.0
 20
210.0
 30
0.0
 40
1.200000000000017
100
AcDbArc
 50
90.0
 51
180.0
  0
ARC
  5
29E
330
1AE
100
AcDbEntity
  8
0
  6
Continuous
 62
     7
370
    25
100
AcDbCircle
 10
259.0
 20
210.0
 30
0.0
 40
3.000000000000057
100
AcDbArc
 50
90.0
 51
180.0
  0
ARC
  5
29F
330
1AE
100
AcDbEntity
  8
0
  6
Continuous
 62
     7
370
    25
100
AcDbCircle
 10
-269.2
 20
-194.5
 30
0.0
 40
10.0
100
AcDbArc
 50
180.0
 51
270.0
  0
ARC
  5
2A0
330
1AE
100
AcDbEntity
  8
0
  6
Continuous
 62
     7
370
    25
100
AcDbCircle
 10
267.8
 20
-194.5
 30
0.0
 40
10.00000000000003
100
AcDbArc
 50
270.0
 51
0.0
  0
ARC
  5
2A1
330
1AE
100
AcDbEntity
  8
0
  6
Continuous
 62
     7
370
    25
100
AcDbCircle
 10
269.2
 20
-194.2
 30
0.0
 40
9.999999999999943
100
AcDbArc
 50
277.9894917971
 51
0.0
  0
ARC
  5
2A2
330
1AE
100
AcDbEntity
  8
0
  6
Continuous
 62
     8
370
    25
100
AcDbCircle
 10
269.2
 20
-194.2
 30
0.0
 40
9.000000000000872
100
AcDbArc
 50
323.2185812975
 51
360.0
  0
VIEWPORT
  5
43D
330
1AE
100
AcDbEntity
  8
0
100
AcDbViewport
 10
0.0
 20
0.0
 30
0.0
 40
205.6
 41
156.0
 68
     1
 69
     1
 12
0.0
 22
200.0
 13
0.0
 23
0.0
 14
10.0
 24
10.0
 15
10.0
 25
10.0
 16
0.0
 26
0.0
 36
1.0
 17
0.0
 27
0.0
 37
0.0
 42
50.0
 43
0.0
 44
0.0
 45
432.1624902724
 50
0.0
 51
0.0
 72
   100
 90
   557152
  1

281
     0
 71
     1
 74
     0
110
0.0
120
0.0
130
0.0
111
1.0
121
0.0
131
0.0
112
0.0
122
1.0
132
0.0
 79
     0
146
0.0
  0
ENDBLK
  5
1B1
330
1AE
100
AcDbEntity
  8
0
100
AcDbBlockEnd
  0
BLOCK
  5
2A5
330
2A3
100
AcDbEntity
  8
0
100
AcDbBlockBegin
  2
*Paper_Space2
 70
     0
 10
0.0
 20
0.0
 30
0.0
  3
*Paper_Space2
  1

  0
SPLINE
  5
2B1
330
2A3
100
AcDbEntity
  8
0
  6
Continuous
 62
     7
370
    25
100
AcDbSpline
210
0.0
220
0.0
230
1.0
 70
     8
 71
     3
 72
    28
 73
    24
 74
     0
 42
0.000000001
 43
0.00000001
 40
0.0
 40
0.0
 40
0.0
 40
0.0
 40
0.0013205701520717
 40
0.0522823883889534
 40
0.1032206234064248
 40
0.154139349388824
 40
0.205042533439321
 40
0.2559338282846955
 40
0.3068164581852895
 40
0.3576931732185289
 40
0.4085662508139902
 40
0.4594375267609881
 40
0.5103083431188798
 40
0.5611795655043746
 40
0.6120520967898834
 40
0.6629265855594159
 40
0.713803472637509
 40
0.7646830317174086
 40
0.8155654038464916
 40
0.8664506260927829
 40
0.9173386549747132
 40
0.9682293853388201
 40
1.0
 40
1.0
 40
1.0
 40
1.0
 10
-79.8106772123316
 20
138.6965884786403
 30
0.0
 10
-79.85285694206424
 20
138.6987815545669
 30
0.0
 10
-81.52278489595932
 20
138.785607117893
 30
0.0
 10
-84.90496150743527
 20
139.2206386445524
 30
0.0
 10
-89.95312262830984
 20
140.0237206277712
 30
0.0
 10
-95.08403425904064
 20
141.1452046691226
 30
0.0
 10
-100.2749837356216
 20
142.5400821573566
 30
0.0
 10
-105.521018035503
 20
144.2175961251511
 30
0.0
 10
-110.812267498162
 20
146.1718893068771
 30
0.0
 10
-116.1400328681917
 20
148.4005691426287
 30
0.0
 10
-121.495173998556
 20
150.8997293259962
 30
0.0
 10
-126.8685606999182
 20
153.6652790490123
 30
0.0
 10
-132.2509708562995
 20
156.6925843489114
 30
0.0
 10
-137.6331545284708
 20
159.9765711551162
 30
0.0
 10
-143.0058465518743
 20
163.5117151801385
 30
0.0
 10
-148.3598036067156
 20
167.2920399441022
 30
0.0
 10
-153.6857728490728
 20
171.3112004890584
 30
0.0
 10
-158.974655254993
 20
175.5621864091915
 30
0.0
 10
-164.2169872806078
 20
180.038485665799
 30
0.0
 10
-169.4049631177614
 20
184.7297994192496
 30
0.0
 10
-174.5249717061355
 20
189.6380994398003
 30
0.0
 10
-178.9516814453996
 20
194.0815190785478
 30
0.0
 10
-181.6330424461158
 20
196.9643275332235
 30
0.0
 10
-182.6636146814842
 20
198.0723254314851
 30
0.0
  0
SPLINE
  5
2B2
330
2A3
100
AcDbEntity
  8
0
  6
Continuous
 62
     7
370
    25
100
AcDbSpline
210
0.0
220
0.0
230
1.0
 70
     8
 71
     3
 72
    12
 73
     8
 74
     0
 42
0.000000001
 43
0.00000001
 40
0.0
 40
0.0
 40
0.0
 40
0.0
 40
0.1207722896319916
 40
0.3493209349788291
 40
0.5772737508679059
 40
0.7994882033218426
 40
1.0
 40
1.0
 40
1.0
 40
1.0
 10
-333.5472533051819
 20
282.8121106939268
 30
0.0
 10
-333.7742387882076
 20
282.6730702868504
 30
0.0
 10
-334.4307700289314
 20
282.2709107753616
 30
0.0
 10
-335.3388905248203
 20
281.4880032600916
 30
0.0
 10
-336.1336458381419
 20
280.437729120296
 30
0.0
 10
-336.6191217358552
 20
279.3166643479458
 30
0.0
 10
-336.655626075512
 20
278.5496737655348
 30
0.0
 10
-336.6729411836845
 20
278.1858670229203
 30
0.0
  0
LWPOLYLINE
  5
2BE
330
2A3
100
AcDbEntity
  8
0
  6
Continuous
 62
     7
370
    25
100
AcDbPolyline
 90
       10
 70
   128
 43
0.0
 10
0.7071067812
 20
367.6844945803
 10
1.4326410691
 20
367.4133828603
 10
2.0706652142
 20
367.4704318333
 10
2.5442240883
 20
367.8487605511
 10
2.7961995021
 20
368.5027369868
 10
2.7961995021
 20
369.3534819306
 10
2.5442240883
 20
370.2983829867
 10
2.0706652142
 20
371.2234711424
 10
1.4326410691
 20
372.0171671133
 10
0.7071067812
 20
372.5837394516
  0
LWPOLYLINE
  5
2C0
330
2A3
100
AcDbEntity
  8
0
  6
Continuous
 62
     7
370
    25
100
AcDbPolyline
 90
       10
 70
   128
 43
0.0
 10
-10.6066017178
 20
379.1150043462
 10
-11.3321360057
 20
379.3861160661
 10
-11.9701601508
 20
379.3290670932
 10
-12.4437190249
 20
378.9507383754
 10
-12.6956944388
 20
378.2967619397
 10
-12.6956944388
 20
377.4460169958
 10
-12.4437190249
 20
376.5011159397
 10
-11.9701601508
 20
375.576027784
 10
-11.3321360057
 20
374.7823318132
 10
-10.6066017178
 20
374.2157594749
  0
LWPOLYLINE
  5
2C2
330
2A3
100
AcDbEntity
  8
0
  6
Continuous
 62
     7
370
    25
100
AcDbPolyline
 90
       10
 70
   128
 43
0.0
 10
-7.0710678119
 20
396.6709635519
 10
-6.9431365415
 20
395.759290185
 10
-6.5747731296
 20
394.8098717802
 10
-6.0104076401
 20
393.9372222091
 10
-5.3181108802
 20
393.2465958888
 10
-4.5813840564
 20
392.8212925463
 10
-3.8890872965
 20
392.7126100413
 10
-3.324721807
 20
392.933657088
 10
-2.9563583951
 20
393.4577721503
 10
-2.8284271247
 20
394.2217392164
  0
LWPOLYLINE
  5
2C4
330
2A3
100
AcDbEntity
  8
0
  6
Continuous
 62
     7
370
    25
100
AcDbPolyline
 90
       10
 70
   128
 43
0.0
 10
-2.8284271247
 20
402.3871473353
 10
-2.9563583951
 20
403.2988207022
 10
-3.324721807
 20
404.248239107
 10
-3.8890872965
 20
405.1208886781
 10
-4.5813840564
 20
405.8115149983
 10
-5.3181108802
 20
406.2368183409
 10
-6.0104076401
 20
406.3455008458
 10
-6.5747731296
 20
406.1244537991
 10
-6.9431365415
 20
405.6003387369
 10
-7.0710678119
 20
404.8363716707
  0
LWPOLYLINE
  5
2C6
330
2A3
100
AcDbEntity
  8
0
  6
Continuous
 62
     7
370
    25
100
AcDbPolyline
 90
       10
 70
   128
 43
0.0
 10
0.7071067812
 20
419.943106541
 10
1.4326410691
 20
419.671994821
 10
2.0706652142
 20
419.729043794
 10
2.5442240883
 20
420.1073725118
 10
2.7961995021
 20
420.7613489475
 10
2.7961995021
 20
421.6120938913
 10
2.5442240883
 20
422.5569949474
 10
2.0706652142
 20
423.4820831031
 10
1.4326410691
 20
424.275779074
 10
0.7071067812
 20
424.8423514123
  0
LWPOLYLINE
  5
2C8
330
2A3
100
AcDbEntity
  8
0
  6
Continuous
 62
     7
370
    25
100
AcDbPolyline
 90
       10
 70
   128
 43
0.0
 10
-10.6066017178
 20
431.3736163069
 10
-11.3321360057
 20
431.6447280268
 10
-11.9701601508
 20
431.5876790539
 10
-12.4437190249
 20
431.2093503361
 10
-12.6956944388
 20
430.5553739004
 10
-12.6956944388
 20
429.7046289565
 10
-12.4437190249
 20
428.7597279004
 10
-11.9701601508
 20
427.8346397447
 10
-11.3321360057
 20
427.0409437738
 10
-10.6066017178
 20
426.4743714356
  0
LWPOLYLINE
  5
2CD
330
2A3
100
AcDbEntity
  8
0
  6
Continuous
 62
     7
370
    25
100
AcDbPolyline
 90
       12
 70
   128
 43
0.0
 10
-44.5477272148
 20
375.0334945873
 10
-44.4045132495
 20
373.9659395961
 10
-43.9864736976
 20
373.150222886
 10
-43.3274756373
 20
372.6524289735
 10
-42.4809071723
 20
372.5128861609
 10
-41.5153522449
 20
372.742899377
 10
-40.5090343728
 20
373.323834319
 10
-39.5434794453
 20
374.2086270928
 10
-38.6969109803
 20
375.32559705
 10
-38.03791292
 20
376.5842539275
 10
-37.6198733681
 20
377.8826288306
 10
-37.4766594029
 20
379.1155351464
  0
LWPOLYLINE
  5
2D0
330
2A3
100
AcDbEntity
  8
0
  6
Continuous
 62
     7
370
    25
100
AcDbPolyline
 90
       12
 70
   128
 43
0.0
 10
-37.4766594029
 20
419.9425757407
 10
-37.6198733681
 20
421.0101307319
 10
-38.03791292
 20
421.825847442
 10
-38.6969109803
 20
422.3236413546
 10
-39.5434794453
 20
422.4631841672
 10
-40.5090343728
 20
422.233170951
 10
-41.5153522449
 20
421.652236009
 10
-42.4809071723
 20
420.7674432352
 10
-43.3274756373
 20
419.650473278
 10
-43.9864736976
 20
418.3918164005
 10
-44.4045132495
 20
417.0934414974
 10
-44.5477272148
 20
415.8605351816
  0
LWPOLYLINE
  5
2DC
330
2A3
100
AcDbEntity
  8
0
  6
Continuous
 62
     7
370
    25
100
AcDbPolyline
 90
        3
 70
   128
 43
0.0
 10
-38.8201622871
 20
420.718163447
 10
-38.9633762524
 20
421.7857184381
 10
-39.2760658385
 20
422.4603698679
  0
LWPOLYLINE
  5
2EC
330
2A3
100
AcDbEntity
  8
0
  6
Continuous
 62
     7
370
    25
100
AcDbPolyline
 90
        9
 70
   128
 43
0.0
 10
-44.0918236634
 20
373.2912881664
 10
-43.8244100566
 20
373.2884738671
 10
-42.8588551291
 20
373.5184870832
 10
-41.852537257
 20
374.0994220252
 10
-40.8869823296
 20
374.9842147991
 10
-40.0404138645
 20
376.1011847562
 10
-39.3814158043
 20
377.3598416337
 10
-38.9633762524
 20
378.6582165369
 10
-38.8201622871
 20
379.8911228527
  0
LWPOLYLINE
  5
30F
330
2A3
100
AcDbEntity
  8
0
  6
Continuous
 62
     7
370
    25
100
AcDbPolyline
 90
        8
 70
   128
 43
0.0
 10
-46.1789454636
 20
398.5880366931
 10
-46.648874389
 20
397.8351359256
 10
-47.1763647037
 20
396.6676868118
 10
-47.4826795635
 20
395.4955792358
 10
-47.5451009965
 20
394.4057430545
 10
-47.3589994906
 20
393.4790064318
 10
-46.9381773432
 20
392.7841011834
 10
-46.5689808142
 20
392.491142938
  0
LWPOLYLINE
  5
31D
330
2A3
100
AcDbEntity
  8
0
  6
Continuous
 62
     7
370
    25
100
AcDbPolyline
 90
       24
 70
   128
 43
0.0
 10
-30.0520382004
 20
384.5622250597
 10
-29.1458563499
 20
385.2291805613
 10
-28.3068818617
 20
386.1343267333
 10
-27.5973376356
 20
387.2105330249
 10
-27.0698473209
 20
388.3779821387
 10
-26.7635324611
 20
389.5500897147
 10
-26.7011110281
 20
390.639925896
 10
-26.887212534
 20
391.5666625187
 10
-27.3080346814
 20
392.261567767
 10
-27.9323670169
 20
392.6731036978
 10
-28.7139056672
 20
392.7707485735
 10
-29.5946874859
 20
392.5472605205
 10
-30.5093889149
 20
392.0192146253
 10
-31.3901707337
 20
391.2257736363
 10
-32.171709384
 20
390.2257834419
 10
-32.7960417194
 20
389.0934087401
 10
-33.2168638669
 20
387.9126325824
 10
-33.4029653728
 20
386.7710277346
 10
-33.3405439397
 20
385.7532618058
 10
-33.03422908
 20
384.934817839
 10
-32.5067387652
 20
384.376396079
 10
-31.7971945391
 20
384.1194121133
 10
-30.958220051
 20
384.1829252668
 10
-30.0520382004
 20
384.5622250597
  0
LWPOLYLINE
  5
329
330
2A3
100
AcDbEntity
  8
0
  6
Continuous
 62
     7
370
    25
100
AcDbPolyline
 90
        9
 70
   128
 43
0.0
 10
-334.9564822481
 20
356.7002338246
 10
-336.2001105592
 20
355.8254319527
 10
-337.1242097613
 20
354.8273776967
 10
-337.6932672402
 20
353.744425722
 10
-337.8854144362
 20
352.6181932655
 10
-337.6932672402
 20
351.491960809
 10
-337.1242097613
 20
350.4090088343
 10
-336.2001105592
 20
349.4109545783
 10
-334.9564822481
 20
348.5361527064
  0
LWPOLYLINE
  5
33A
330
2A3
100
AcDbEntity
  8
0
  6
Continuous
 62
     7
370
    25
100
AcDbPolyline
 90
       10
 70
   128
 43
0.0
 10
-107.010179091
 20
311.6533947649
 10
-106.5492550911
 20
311.8356129838
 10
-105.6943604826
 20
311.8536190244
 10
-104.7516556256
 20
311.5356209365
 10
-103.7910566269
 20
310.9052031836
 10
-102.8838067195
 20
310.0091209665
 10
-102.0971924789
 20
308.9138326039
 10
-101.4895534847
 20
307.7005706231
 10
-101.1059555413
 20
306.4593171148
 10
-100.9748483534
 20
305.2821301734
  0
LWPOLYLINE
  5
348
330
2A3
100
AcDbEntity
  8
0
  6
Continuous
 62
     7
370
    25
100
AcDbPolyline
 90
       17
 70
   128
 43
0.0
 10
-98.8535280099
 20
304.0575180057
 10
-98.9857821187
 20
305.5381237798
 10
-99.3763603899
 20
307.1021954172
 10
-100.0069998176
 20
308.6765986666
 10
-100.8482124032
 20
310.1877161817
 10
-101.8606639811
 20
311.5648897871
 10
-102.9970134407
 20
312.7437243756
 10
-104.2041263443
 20
313.669098952
 10
-105.4255594341
 20
314.2977440295
 10
-106.6041998563
 20
314.6002648632
 10
-107.6849356948
 20
314.562515915
 10
-108.617232943
 20
314.1862622837
 10
-109.3574984176
 20
313.489097171
 10
-109.8711181278
 20
312.5036192428
 10
-110.1340757869
 20
311.2759083516
 10
-110.1340757869
 20
309.8633708943
 10
-110.1329318268
 20
309.8506679826
  0
LWPOLYLINE
  5
349
330
2A3
100
AcDbEntity
  8
0
  6
Continuous
 62
     7
370
    25
100
AcDbPolyline
 90
        9
 70
   128
 43
0.0
 10
-105.1333381636
 20
301.1901793588
 10
-104.2041263443
 20
300.6236064009
 10
-102.9970134407
 20
300.1552780846
 10
-101.8606639811
 20
300.0221115138
 10
-100.8482124032
 20
300.2303334092
 10
-100.0069998176
 20
300.7702075465
 10
-99.3763603899
 20
301.616490011
 10
-98.9857821187
 20
302.7296095753
 10
-98.8535280099
 20
304.0575180057
  0
LWPOLYLINE
  5
34A
330
2A3
100
AcDbEntity
  8
0
  6
Continuous
 62
     7
370
    25
100
AcDbPolyline
 90
       16
 70
   128
 43
0.0
 10
-86.2603274544
 20
308.6248058402
 10
-85.5340678073
 20
309.3040474456
 10
-85.0241959193
 20
310.2600610539
 10
-84.7535347017
 20
311.4500535352
 10
-84.7341995058
 20
312.8207583855
 10
-84.9670558147
 20
314.3108200444
 10
-85.4416805023
 20
315.853540296
 10
-86.1368283941
 20
317.3798638178
 10
-87.021383245
 20
318.8214692386
 10
-88.0557505654
 20
320.1138273429
 10
-89.1936299528
 20
321.1990895316
 10
-90.384087592
 20
322.0286772432
 10
-91.5738361575
 20
322.5654564304
 10
-92.7096200634
 20
322.7853997557
 10
-93.7405992926
 20
322.6786621048
 10
-94.3679215662
 20
322.4156224702
  0
LWPOLYLINE
  5
34E
330
2A3
100
AcDbEntity
  8
0
  6
Continuous
 62
     7
370
    25
100
AcDbPolyline
 90
       19
 70
   128
 43
0.0
 10
28.8297536215
 20
189.1108904802
 10
27.3295440912
 20
194.2733921942
 10
25.5805046902
 20
199.4521852016
 10
23.5906862489
 20
204.6234315121
 10
21.3692479042
 20
209.7633278723
 10
18.9264149393
 20
214.8482153332
 10
16.2734317175
 20
219.8546881514
 10
13.4225099237
 20
224.7597015265
 10
10.3867723545
 20
229.5406776759
 10
7.1801925136
 20
234.1756097605
 10
3.817530292
 20
238.6431631822
 10
0.314264028
 20
242.9227737872
 10
-3.3134807395
 20
246.9947425226
 10
-7.0490054968
 20
250.8403261113
 10
-10.8751156191
 20
254.4418233273
 10
-14.7741995166
 20
257.7826564746
 10
-18.7283097014
 20
260.8474476941
 10
-22.7192453994
 20
263.622089748
 10
-26.7286363289
 20
266.0938109556
  0
LWPOLYLINE
  5
353
330
2A3
100
AcDbEntity
  8
0
  6
Continuous
 62
     7
370
    25
100
AcDbPolyline
 90
       19
 70
   128
 43
0.0
 10
40.1434621205
 20
195.6421553748
 10
38.6432525902
 20
200.8046570888
 10
36.8942131892
 20
205.9834500962
 10
34.9043947479
 20
211.1546964066
 10
32.6829564032
 20
216.2945927669
 10
30.2401234383
 20
221.3794802278
 10
27.5871402164
 20
226.385953046
 10
24.7362184227
 20
231.2909664211
 10
21.7004808535
 20
236.0719425705
 10
18.4939010126
 20
240.7068746551
 10
15.131238791
 20
245.1744280768
 10
11.627972527
 20
249.4540386818
 10
8.0002277595
 20
253.5260074172
 10
4.2647030021
 20
257.3715910059
 10
0.4385928799
 20
260.9730882219
 10
-3.4604910176
 20
264.3139213692
 10
-7.4146012024
 20
267.3787125887
 10
-11.4055369004
 20
270.1533546426
 10
-15.4149278299
 20
272.6250758501
  0
LWPOLYLINE
  5
362
330
2A3
100
AcDbEntity
  8
0
  6
Continuous
 62
     7
370
    25
100
AcDbPolyline
 90
        9
 70
   128
 43
0.0
 10
64.4881384442
 20
59.1484208152
 10
64.7640378235
 20
59.1327312125
 10
65.0293345444
 20
59.0862653469
 10
65.2738334026
 20
59.0108088756
 10
65.4881384442
 20
58.9092615485
 10
65.6640140466
 20
58.7855257724
 10
65.7947014091
 20
58.6443566439
 10
65.8751782895
 20
58.4911792132
 10
65.9023520066
 20
58.3318800033
  0
LWPOLYLINE
  5
367
330
2A3
100
AcDbEntity
  8
0
  6
Continuous
 62
     7
370
    25
100
AcDbPolyline
 90
       22
 70
   128
 43
0.0
 10
-84.6836890701
 20
130.4047234933
 10
-89.9608067825
 20
130.5332867313
 10
-95.3454631955
 20
130.998875843
 10
-100.8269221561
 20
131.8005625173
 10
-106.3942545024
 20
132.9367483177
 10
-112.0363598545
 20
134.4051678697
 10
-117.741988747
 20
136.2028933768
 10
-123.4997650586
 20
138.3263404589
 10
-129.2982086943
 20
140.7712752985
 10
-135.1257584748
 20
143.5328230822
 10
-140.9707951879
 20
146.6054777208
 10
-146.8216647551
 20
149.9831128269
 10
-152.6667014681
 20
153.6589939307
 10
-158.4942512486
 20
157.6257919066
 10
-164.2926948843
 20
161.8755975873
 10
-170.0504711959
 20
166.3999375324
 10
-175.7561000884
 20
171.189790924
 10
-181.3982054405
 20
176.2356075522
 10
-186.9655377869
 20
181.527326857
 10
-192.4469967475
 20
187.0543979873
 10
-197.8316531605
 20
192.8058008376
 10
-203.1087708729
 20
198.7700680208
  0
LWPOLYLINE
  5
36C
330
2A3
100
AcDbEntity
  8
0
  6
Continuous
 62
     7
370
    25
100
AcDbPolyline
 90
       22
 70
   128
 43
0.0
 10
-202.0821252693
 20
199.7222182594
 10
-196.8334853752
 20
193.7901370775
 10
-191.4778871101
 20
188.0697715119
 10
-186.0260086896
 20
182.5725270665
 10
-180.4887202967
 20
177.3093643771
 10
-174.8770624084
 20
172.2907773573
 10
-169.2022237828
 20
167.5267722757
 10
-163.4755191502
 20
163.0268478046
 10
-157.7083666536
 20
158.7999760816
 10
-151.9122650826
 20
154.85458482
 10
-146.0987709468
 20
151.198540506
 10
-140.2794754337
 20
147.8391327133
 10
-134.465981298
 20
144.7830595696
 10
-128.669879727
 20
142.0364144013
 10
-122.9027272304
 20
139.6046735843
 10
-117.1760225978
 20
137.4926856251
 10
-111.5011839721
 20
135.7046614934
 10
-105.8895260839
 20
134.2441662265
 10
-100.352237691
 20
133.114111821
 10
-94.9003592705
 20
132.3167514265
 10
-89.5447610054
 20
131.8536748534
 10
-84.2961211112
 20
131.7258054033
  0
LWPOLYLINE
  5
372
330
2A3
100
AcDbEntity
  8
0
  6
Continuous
 62
     7
370
    25
100
AcDbPolyline
 90
        9
 70
   128
 43
0.0
 10
-333.0472939389
 20
282.7626026434
 10
-334.1665594189
 20
281.9752809587
 10
-334.9982487008
 20
281.0770321283
 10
-335.5104004318
 20
280.1023753511
 10
-335.6833329082
 20
279.0887661402
 10
-335.5104004318
 20
278.0751569294
 10
-334.9982487008
 20
277.1005001521
 10
-334.1665594189
 20
276.2022513217
 10
-333.0472939389
 20
275.414929637
  0
LWPOLYLINE
  5
37B
330
2A3
100
AcDbEntity
  8
0
  6
Continuous
 62
     8
370
    25
100
AcDbPolyline
 90
       20
 70
   128
 43
0.0
 10
-79.5782974122
 20
138.5624384755
 10
-83.4452294153
 20
138.9296571322
 10
-88.8971078358
 20
139.7270175268
 10
-94.4343962287
 20
140.8570719323
 10
-100.0460541169
 20
142.3175671991
 10
-105.7208927425
 20
144.1055913308
 10
-111.4475973752
 20
146.2175792901
 10
-117.2147498718
 20
148.6493201071
 10
-123.0108514427
 20
151.3959652754
 10
-128.8243455785
 20
154.452038419
 10
-134.6436410916
 20
157.8114462117
 10
-140.4571352274
 20
161.4674905258
 10
-146.2532367983
 20
165.4128817873
 10
-152.0203892949
 20
169.6397535104
 10
-157.7470939276
 20
174.1396779814
 10
-163.4219325532
 20
178.9036830631
 10
-169.0335904415
 20
183.9222700828
 10
-174.5708788343
 20
189.1854327723
 10
-180.0227572548
 20
194.6826772176
 10
-183.8896892579
 20
198.7801232186
  0
LINE
  5
380
330
2A3
100
AcDbEntity
  8
0
  6
Continuous
 62
     7
370
    25
100
AcDbLine
 10
-31.6482322781
 20
366.0241278036
 30
0.0
 11
-31.6482322781
 21
366.1493982686
 31
0.0
  0
LINE
  5
381
330
2A3
100
AcDbEntity
  8
0
  6
Continuous
 62
     7
370
    25
100
AcDbLine
 10
-31.6482322781
 20
441.1892467508
 30
0.0
 11
-31.6482322781
 21
443.1055804456
 31
0.0
  0
LINE
  5
382
330
2A3
100
AcDbEntity
  8
0
  6
Continuous
 62
     7
370
    25
100
AcDbLine
 10
-46.5689808142
 20
392.491142938
 30
0.0
 11
-32.4268451904
 21
384.3270618198
 31
0.0
  0
LINE
  5
383
330
2A3
100
AcDbEntity
  8
0
  6
Continuous
 62
     7
370
    25
100
AcDbLine
 10
-27.6772312104
 20
392.5545260124
 30
0.0
 11
-41.8193668341
 21
400.7186071306
 31
0.0
  0
LINE
  5
384
330
2A3
100
AcDbEntity
  8
0
  6
Continuous
 62
     7
370
    25
100
AcDbLine
 10
-337.8854144362
 20
352.6181932655
 30
0.0
 11
-337.8854144362
 21
290.0711670751
 31
0.0
  0
LINE
  5
385
330
2A3
100
AcDbEntity
  8
0
  6
Continuous
 62
     7
370
    25
100
AcDbLine
 10
-107.010179091
 20
311.6533947649
 30
0.0
 11
-175.9569885857
 21
271.851248856
 31
0.0
  0
LINE
  5
386
330
2A3
100
AcDbEntity
  8
0
  6
Continuous
 62
     7
370
    25
100
AcDbLine
 10
-165.956175846
 20
266.0779025505
 30
0.0
 11
-102.0105854278
 21
302.9929061411
 31
0.0
  0
LINE
  5
387
330
2A3
100
AcDbEntity
  8
0
  6
Continuous
 62
     7
370
    25
100
AcDbLine
 10
-94.3679215662
 20
322.4156224702
 30
0.0
 11
-108.5100571899
 21
314.251541352
 31
0.0
  0
LINE
  5
388
330
2A3
100
AcDbEntity
  8
0
  6
Continuous
 62
     7
370
    25
100
AcDbLine
 10
-100.5107073288
 20
300.3947595539
 30
0.0
 11
-93.439639517
 21
304.476800113
 31
0.0
  0
LINE
  5
389
330
2A3
100
AcDbEntity
  8
0
  6
Continuous
 62
     7
370
    25
100
AcDbLine
 10
65.4880571768
 20
58.909308467
 30
0.0
 11
54.4325710067
 21
65.2915047841
 31
0.0
  0
LINE
  5
38A
330
2A3
100
AcDbEntity
  8
0
  6
Continuous
 62
     7
370
    25
100
AcDbLine
 10
-336.6833329082
 20
278.2722253283
 30
0.0
 11
-336.6833329082
 21
30.0438185151
 31
0.0
  0
LINE
  5
38B
330
2A3
100
AcDbEntity
  8
0
  6
Continuous
 62
     7
370
    25
100
AcDbLine
 10
-331.5001932169
 20
283.9938533288
 30
0.0
 11
-333.5472533052
 21
282.8121106939
 31
0.0
  0
LINE
  5
38C
330
2A3
100
AcDbEntity
  8
0
  6
Continuous
 62
     7
370
    25
100
AcDbLine
 10
11.313708499
 20
426.8846986925
 30
0.0
 11
12.6572113832
 21
427.6602863987
 31
0.0
  0
LINE
  5
38D
330
2A3
100
AcDbEntity
  8
0
  6
Continuous
 62
     7
370
    25
100
AcDbLine
 10
11.313708499
 20
426.8846986925
 30
0.0
 11
-21.2132034356
 21
445.6620852644
 31
0.0
  0
LINE
  5
38E
330
2A3
100
AcDbEntity
  8
0
  6
Continuous
 62
     7
370
    25
100
AcDbLine
 10
-53.7401153702
 20
426.8846986925
 30
0.0
 11
-21.2132034356
 21
445.6620852644
 31
0.0
  0
LINE
  5
38F
330
2A3
100
AcDbEntity
  8
0
  6
Continuous
 62
     7
370
    25
100
AcDbLine
 10
-55.0836182544
 20
427.6602863987
 30
0.0
 11
-53.7401153702
 21
426.8846986925
 31
0.0
  0
LINE
  5
390
330
2A3
100
AcDbEntity
  8
0
  6
Continuous
 62
     7
370
    25
100
AcDbLine
 10
-55.0836182544
 20
427.6602863987
 30
0.0
 11
-21.2132034356
 21
447.2132606769
 31
0.0
  0
LINE
  5
391
330
2A3
100
AcDbEntity
  8
0
  6
Continuous
 62
     7
370
    25
100
AcDbLine
 10
12.6572113832
 20
427.6602863987
 30
0.0
 11
-21.2132034356
 21
447.2132606769
 31
0.0
  0
LINE
  5
392
330
2A3
100
AcDbEntity
  8
0
  6
Continuous
 62
     7
370
    25
100
AcDbLine
 10
11.313708499
 20
353.3960256228
 30
0.0
 11
11.313708499
 21
426.8846986925
 31
0.0
  0
LINE
  5
393
330
2A3
100
AcDbEntity
  8
0
  6
Continuous
 62
     7
370
    25
100
AcDbLine
 10
-21.2132034356
 20
372.1734121947
 30
0.0
 11
11.313708499
 21
353.3960256228
 31
0.0
  0
LINE
  5
394
330
2A3
100
AcDbEntity
  8
0
  6
Continuous
 62
     7
370
    25
100
AcDbLine
 10
-21.2132034356
 20
445.6620852644
 30
0.0
 11
-21.2132034356
 21
372.1734121947
 31
0.0
  0
LINE
  5
395
330
2A3
100
AcDbEntity
  8
0
  6
Continuous
 62
     7
370
    25
100
AcDbLine
 10
0.7071067812
 20
372.5837394516
 30
0.0
 11
-10.6066017178
 21
379.1150043462
 31
0.0
  0
LINE
  5
396
330
2A3
100
AcDbEntity
  8
0
  6
Continuous
 62
     7
370
    25
100
AcDbLine
 10
-10.6066017178
 20
374.2157594749
 30
0.0
 11
0.7071067812
 21
367.6844945803
 31
0.0
  0
LINE
  5
397
330
2A3
100
AcDbEntity
  8
0
  6
Continuous
 62
     7
370
    25
100
AcDbLine
 10
-2.8284271247
 20
394.2217392164
 30
0.0
 11
-2.8284271247
 21
402.3871473353
 31
0.0
  0
LINE
  5
398
330
2A3
100
AcDbEntity
  8
0
  6
Continuous
 62
     7
370
    25
100
AcDbLine
 10
-7.0710678119
 20
404.8363716707
 30
0.0
 11
-7.0710678119
 21
396.6709635519
 31
0.0
  0
LINE
  5
399
330
2A3
100
AcDbEntity
  8
0
  6
Continuous
 62
     7
370
    25
100
AcDbLine
 10
0.7071067812
 20
424.8423514123
 30
0.0
 11
-10.6066017178
 21
431.3736163069
 31
0.0
  0
LINE
  5
39A
330
2A3
100
AcDbEntity
  8
0
  6
Continuous
 62
     7
370
    25
100
AcDbLine
 10
-10.6066017178
 20
426.4743714356
 30
0.0
 11
0.7071067812
 21
419.943106541
 31
0.0
  0
LINE
  5
39B
330
2A3
100
AcDbEntity
  8
0
  6
Continuous
 62
     7
370
    25
100
AcDbLine
 10
11.313708499
 20
353.3960256228
 30
0.0
 11
12.6572113832
 21
354.171613329
 31
0.0
  0
LINE
  5
39C
330
2A3
100
AcDbEntity
  8
0
  6
Continuous
 62
     7
370
    25
100
AcDbLine
 10
12.6572113832
 20
354.171613329
 30
0.0
 11
12.6572113832
 21
427.6602863987
 31
0.0
  0
LINE
  5
39D
330
2A3
100
AcDbEntity
  8
0
  6
Continuous
 62
     7
370
    25
100
AcDbLine
 10
-44.5477272148
 20
391.3242980721
 30
0.0
 11
-44.5477272148
 21
375.0334945873
 31
0.0
  0
LINE
  5
39E
330
2A3
100
AcDbEntity
  8
0
  6
Continuous
 62
     7
370
    25
100
AcDbLine
 10
-37.4766594029
 20
379.1155351464
 30
0.0
 11
-37.4766594029
 21
387.242257513
 31
0.0
  0
LINE
  5
39F
330
2A3
100
AcDbEntity
  8
0
  6
Continuous
 62
     7
370
    25
100
AcDbLine
 10
-37.4766594029
 20
398.2116154934
 30
0.0
 11
-37.4766594029
 21
419.9425757407
 31
0.0
  0
LINE
  5
3A0
330
2A3
100
AcDbEntity
  8
0
  6
Continuous
 62
     7
370
    25
100
AcDbLine
 10
-44.5477272148
 20
415.8605351816
 30
0.0
 11
-44.5477272148
 21
399.5297189439
 31
0.0
  0
LINE
  5
3A1
330
2A3
100
AcDbEntity
  8
0
  6
Continuous
 62
     7
370
    25
100
AcDbLine
 10
-44.5477272148
 20
399.5297189439
 30
0.0
 11
-53.7401153702
 21
394.223066217
 31
0.0
  0
LINE
  5
3A2
330
2A3
100
AcDbEntity
  8
0
  6
Continuous
 62
     7
370
    25
100
AcDbLine
 10
-53.7401153702
 20
426.8846986925
 30
0.0
 11
-53.7401153702
 21
394.223066217
 31
0.0
  0
LINE
  5
3A3
330
2A3
100
AcDbEntity
  8
0
  6
Continuous
 62
     7
370
    25
100
AcDbLine
 10
-53.7401153702
 20
353.3960256228
 30
0.0
 11
-21.2132034356
 21
372.1734121947
 31
0.0
  0
LINE
  5
3A4
330
2A3
100
AcDbEntity
  8
0
  6
Continuous
 62
     7
370
    25
100
AcDbLine
 10
-53.7401153702
 20
386.0576580982
 30
0.0
 11
-53.7401153702
 21
353.3960256228
 31
0.0
  0
LINE
  5
3A5
330
2A3
100
AcDbEntity
  8
0
  6
Continuous
 62
     7
370
    25
100
AcDbLine
 10
-53.7401153702
 20
386.0576580982
 30
0.0
 11
-44.5823830303
 21
391.3443044486
 31
0.0
  0
LINE
  5
3A6
330
2A3
100
AcDbEntity
  8
0
  6
Continuous
 62
     7
370
    25
100
AcDbLine
 10
-55.0836182544
 20
394.9986539233
 30
0.0
 11
-53.7401153702
 21
394.223066217
 31
0.0
  0
LINE
  5
3A7
330
2A3
100
AcDbEntity
  8
0
  6
Continuous
 62
     7
370
    25
100
AcDbLine
 10
-55.0836182544
 20
394.9986539233
 30
0.0
 11
-55.0836182544
 21
427.6602863987
 31
0.0
  0
LINE
  5
3A8
330
2A3
100
AcDbEntity
  8
0
  6
Continuous
 62
     7
370
    25
100
AcDbLine
 10
2.0506096654
 20
420.7186942472
 30
0.0
 11
0.7071067812
 21
419.943106541
 31
0.0
  0
LINE
  5
3A9
330
2A3
100
AcDbEntity
  8
0
  6
Continuous
 62
     7
370
    25
100
AcDbLine
 10
2.0506096654
 20
420.7186942472
 30
0.0
 11
2.7199514227
 21
420.4574295587
 31
0.0
  0
LINE
  5
3AA
330
2A3
100
AcDbEntity
  8
0
  6
Continuous
 62
     7
370
    25
100
AcDbLine
 10
-38.8201622871
 20
420.718163447
 30
0.0
 11
-37.4766594029
 21
419.9425757407
 31
0.0
  0
LINE
  5
3AB
330
2A3
100
AcDbEntity
  8
0
  6
Continuous
 62
     7
370
    25
100
AcDbLine
 10
-9.2630988335
 20
427.2499591418
 30
0.0
 11
-10.6066017178
 21
426.4743714356
 31
0.0
  0
LINE
  5
3AC
330
2A3
100
AcDbEntity
  8
0
  6
Continuous
 62
     7
370
    25
100
AcDbLine
 10
-9.2630988335
 20
427.2499591418
 30
0.0
 11
2.0506096654
 21
420.7186942472
 31
0.0
  0
LINE
  5
3AD
330
2A3
100
AcDbEntity
  8
0
  6
Continuous
 62
     7
370
    25
100
AcDbLine
 10
-38.8201622871
 20
379.8911228527
 30
0.0
 11
-37.4766594029
 21
379.1155351464
 31
0.0
  0
LINE
  5
3AE
330
2A3
100
AcDbEntity
  8
0
  6
Continuous
 62
     7
370
    25
100
AcDbLine
 10
-38.8201622871
 20
379.8911228527
 30
0.0
 11
-38.8201622871
 21
388.0178452192
 31
0.0
  0
LINE
  5
3AF
330
2A3
100
AcDbEntity
  8
0
  6
Continuous
 62
     7
370
    25
100
AcDbLine
 10
-38.8201622871
 20
398.9872031996
 30
0.0
 11
-38.8201622871
 21
420.718163447
 31
0.0
  0
LINE
  5
3B0
330
2A3
100
AcDbEntity
  8
0
  6
Continuous
 62
     7
370
    25
100
AcDbLine
 10
-55.0836182544
 20
386.8332458044
 30
0.0
 11
-53.7401153702
 21
386.0576580982
 31
0.0
  0
LINE
  5
3B1
330
2A3
100
AcDbEntity
  8
0
  6
Continuous
 62
     7
370
    25
100
AcDbLine
 10
-53.7401153702
 20
353.3960256228
 30
0.0
 11
-55.0836182544
 21
354.171613329
 31
0.0
  0
LINE
  5
3B2
330
2A3
100
AcDbEntity
  8
0
  6
Continuous
 62
     7
370
    25
100
AcDbLine
 10
-55.0836182544
 20
354.171613329
 30
0.0
 11
-55.0836182544
 21
386.8332458044
 31
0.0
  0
LINE
  5
3B3
330
2A3
100
AcDbEntity
  8
0
  6
Continuous
 62
     7
370
    25
100
AcDbLine
 10
-55.0836182544
 20
386.8332458044
 30
0.0
 11
-45.9258859146
 21
392.1198921548
 31
0.0
  0
LINE
  5
3B4
330
2A3
100
AcDbEntity
  8
0
  6
Continuous
 62
     7
370
    25
100
AcDbLine
 10
-5.7275649276
 20
405.611959377
 30
0.0
 11
-7.0710678119
 21
404.8363716707
 31
0.0
  0
LINE
  5
3B5
330
2A3
100
AcDbEntity
  8
0
  6
Continuous
 62
     7
370
    25
100
AcDbLine
 10
-5.6190892256
 20
406.3226466272
 30
0.0
 11
-5.7275649276
 21
405.611959377
 31
0.0
  0
LINE
  5
3B6
330
2A3
100
AcDbEntity
  8
0
  6
Continuous
 62
     7
370
    25
100
AcDbLine
 10
-5.7275649276
 20
397.4465512581
 30
0.0
 11
-7.0710678119
 21
396.6709635519
 31
0.0
  0
LINE
  5
3B7
330
2A3
100
AcDbEntity
  8
0
  6
Continuous
 62
     7
370
    25
100
AcDbLine
 10
-5.7275649276
 20
405.611959377
 30
0.0
 11
-5.7275649276
 21
397.4465512581
 31
0.0
  0
LINE
  5
3B8
330
2A3
100
AcDbEntity
  8
0
  6
Continuous
 62
     7
370
    25
100
AcDbLine
 10
2.0506096654
 20
368.4600822865
 30
0.0
 11
0.7071067812
 21
367.6844945803
 31
0.0
  0
LINE
  5
3B9
330
2A3
100
AcDbEntity
  8
0
  6
Continuous
 62
     7
370
    25
100
AcDbLine
 10
2.0506096654
 20
368.4600822865
 30
0.0
 11
2.7199514222
 21
368.1988175981
 31
0.0
  0
LINE
  5
3BA
330
2A3
100
AcDbEntity
  8
0
  6
Continuous
 62
     7
370
    25
100
AcDbLine
 10
-9.2630988335
 20
374.9913471811
 30
0.0
 11
-10.6066017178
 21
374.2157594749
 31
0.0
  0
LINE
  5
3BB
330
2A3
100
AcDbEntity
  8
0
  6
Continuous
 62
     7
370
    25
100
AcDbLine
 10
-9.2630988335
 20
374.9913471811
 30
0.0
 11
2.0506096654
 21
368.4600822865
 31
0.0
  0
LINE
  5
3BC
330
2A3
100
AcDbEntity
  8
0
  6
Continuous
 62
     7
370
    25
100
AcDbLine
 10
-24.7487373415
 20
525.4116999831
 30
0.0
 11
-37.6180807591
 21
532.8410138007
 31
0.0
  0
LINE
  5
3BD
330
2A3
100
AcDbEntity
  8
0
  6
Continuous
 62
     7
370
    25
100
AcDbLine
 10
-24.7487373415
 20
525.4116999831
 30
0.0
 11
-316.0767311904
 21
357.2316289477
 31
0.0
  0
LINE
  5
3BE
330
2A3
100
AcDbEntity
  8
0
  6
Continuous
 62
     7
370
    25
100
AcDbLine
 10
-316.0767311904
 20
357.2316289477
 30
0.0
 11
-328.946074608
 21
364.6609427652
 31
0.0
  0
LINE
  5
3BF
330
2A3
100
AcDbEntity
  8
0
  6
Continuous
 62
     7
370
    25
100
AcDbLine
 10
-37.6180807591
 20
532.8410138007
 30
0.0
 11
-328.946074608
 21
364.6609427652
 31
0.0
  0
LINE
  5
3C0
330
2A3
100
AcDbEntity
  8
0
  6
Continuous
 62
     7
370
    25
100
AcDbLine
 10
-24.7487373415
 20
278.0133693882
 30
0.0
 11
-24.7487373415
 21
370.1323919151
 31
0.0
  0
LINE
  5
3C1
330
2A3
100
AcDbEntity
  8
0
  6
Continuous
 62
     7
370
    25
100
AcDbLine
 10
-24.7487373415
 20
445.1722403973
 30
0.0
 11
-24.7487373415
 21
525.4116999831
 31
0.0
  0
LINE
  5
3C2
330
2A3
100
AcDbEntity
  8
0
  6
Continuous
 62
     7
370
    25
100
AcDbLine
 10
-316.0767311904
 20
357.2316289477
 30
0.0
 11
-316.0767311904
 21
352.7406544823
 31
0.0
  0
LINE
  5
3C3
330
2A3
100
AcDbEntity
  8
0
  6
Continuous
 62
     7
370
    25
100
AcDbLine
 10
-328.946074608
 20
364.6609427652
 30
0.0
 11
-328.946074608
 21
360.1699682999
 31
0.0
  0
LINE
  5
3C4
330
2A3
100
AcDbEntity
  8
0
  6
Continuous
 62
     7
370
    25
100
AcDbLine
 10
-60.1040764009
 20
351.3287817908
 30
0.0
 11
-60.1040764009
 21
428.4102344328
 31
0.0
  0
LINE
  5
3C5
330
2A3
100
AcDbEntity
  8
0
  6
Continuous
 62
     7
370
    25
100
AcDbLine
 10
-55.8614357137
 20
428.4102344328
 30
0.0
 11
-55.8614357137
 21
351.3287817908
 31
0.0
  0
LINE
  5
3C6
330
2A3
100
AcDbEntity
  8
0
  6
Continuous
 62
     7
370
    25
100
AcDbLine
 10
-61.5182899632
 20
429.2266425446
 30
0.0
 11
-60.1040764009
 21
428.4102344328
 31
0.0
  0
LINE
  5
3C7
330
2A3
100
AcDbEntity
  8
0
  6
Continuous
 62
     7
370
    25
100
AcDbLine
 10
-61.5182899632
 20
429.2266425446
 30
0.0
 11
-60.2454977571
 21
429.9614098453
 31
0.0
  0
LINE
  5
3C8
330
2A3
100
AcDbEntity
  8
0
  6
Continuous
 62
     7
370
    25
100
AcDbLine
 10
-60.2454977571
 20
429.9614098453
 30
0.0
 11
-58.8312841947
 21
429.1450017334
 31
0.0
  0
LINE
  5
3C9
330
2A3
100
AcDbEntity
  8
0
  6
Continuous
 62
     7
370
    25
100
AcDbLine
 10
-57.1342279199
 20
429.1450017334
 30
0.0
 11
-56.4271211387
 21
429.5532057894
 31
0.0
  0
LINE
  5
3CA
330
2A3
100
AcDbEntity
  8
0
  6
Continuous
 62
     7
370
    25
100
AcDbLine
 10
-56.4271211387
 20
429.5532057894
 30
0.0
 11
-55.1543289326
 21
428.8184384887
 31
0.0
  0
LINE
  5
3CB
330
2A3
100
AcDbEntity
  8
0
  6
Continuous
 62
     7
370
    25
100
AcDbLine
 10
-55.8614357137
 20
428.4102344328
 30
0.0
 11
-55.1543289326
 21
428.8184384887
 31
0.0
  0
LINE
  5
3CC
330
2A3
100
AcDbEntity
  8
0
  6
Continuous
 62
     7
370
    25
100
AcDbLine
 10
-55.1543289326
 20
428.8184384887
 30
0.0
 11
-55.1543289326
 21
430.2882119501
 31
0.0
  0
LINE
  5
3CD
330
2A3
100
AcDbEntity
  8
0
  6
Continuous
 62
     7
370
    25
100
AcDbLine
 10
-33.2340187158
 20
442.9425376834
 30
0.0
 11
-55.1543289326
 21
430.2882119501
 31
0.0
  0
LINE
  5
3CE
330
2A3
100
AcDbEntity
  8
0
  6
Continuous
 62
     7
370
    25
100
AcDbLine
 10
-33.2340187158
 20
442.9425376834
 30
0.0
 11
-33.2340187158
 21
441.472764222
 31
0.0
  0
LINE
  5
3CF
330
2A3
100
AcDbEntity
  8
0
  6
Continuous
 62
     7
370
    25
100
AcDbLine
 10
-33.2340187158
 20
441.472764222
 30
0.0
 11
-32.5269119346
 21
441.8809682779
 31
0.0
  0
LINE
  5
3D0
330
2A3
100
AcDbEntity
  8
0
  6
Continuous
 62
     7
370
    25
100
AcDbLine
 10
-32.5269119346
 20
364.7995156359
 30
0.0
 11
-33.2340187158
 21
364.39131158
 31
0.0
  0
LINE
  5
3D1
330
2A3
100
AcDbEntity
  8
0
  6
Continuous
 62
     7
370
    25
100
AcDbLine
 10
-33.2340187158
 20
364.39131158
 30
0.0
 11
-33.2340187158
 21
362.9215381186
 31
0.0
  0
LINE
  5
3D2
330
2A3
100
AcDbEntity
  8
0
  6
Continuous
 62
     7
370
    25
100
AcDbLine
 10
-33.2340187158
 20
362.9215381186
 30
0.0
 11
-55.1543289326
 21
350.2672123853
 31
0.0
  0
LINE
  5
3D3
330
2A3
100
AcDbEntity
  8
0
  6
Continuous
 62
     7
370
    25
100
AcDbLine
 10
-55.1543289326
 20
350.2672123853
 30
0.0
 11
-55.1543289326
 21
351.7369858467
 31
0.0
  0
LINE
  5
3D4
330
2A3
100
AcDbEntity
  8
0
  6
Continuous
 62
     7
370
    25
100
AcDbLine
 10
-55.1543289326
 20
351.7369858467
 30
0.0
 11
-55.8614357137
 21
351.3287817908
 31
0.0
  0
LINE
  5
3D5
330
2A3
100
AcDbEntity
  8
0
  6
Continuous
 62
     7
370
    25
100
AcDbLine
 10
-44.1941738242
 20
400.4834438908
 30
0.0
 11
-44.5477272148
 21
400.2577940914
 31
0.0
  0
LINE
  5
3D6
330
2A3
100
AcDbEntity
  8
0
  6
Continuous
 62
     7
370
    25
100
AcDbLine
 10
-56.4271211387
 20
431.0229792508
 30
0.0
 11
-55.1543289326
 21
430.2882119501
 31
0.0
  0
LINE
  5
3D7
330
2A3
100
AcDbEntity
  8
0
  6
Continuous
 62
     7
370
    25
100
AcDbLine
 10
-56.4271211387
 20
431.0229792508
 30
0.0
 11
-34.5068109219
 21
443.677304984
 31
0.0
  0
LINE
  5
3D8
330
2A3
100
AcDbEntity
  8
0
  6
Continuous
 62
     7
370
    25
100
AcDbLine
 10
-34.5068109219
 20
443.677304984
 30
0.0
 11
-33.2340187158
 21
442.9425376834
 31
0.0
  0
LINE
  5
3D9
330
2A3
100
AcDbEntity
  8
0
  6
Continuous
 62
     7
370
    25
100
AcDbLine
 10
-56.4271211387
 20
429.5532057894
 30
0.0
 11
-56.4271211387
 21
431.0229792508
 31
0.0
  0
LINE
  5
3DA
330
2A3
100
AcDbEntity
  8
0
  6
Continuous
 62
     7
370
    25
100
AcDbLine
 10
-61.5182899632
 20
352.1451899026
 30
0.0
 11
-60.1040764009
 21
351.3287817908
 31
0.0
  0
LINE
  5
3DB
330
2A3
100
AcDbEntity
  8
0
  6
Continuous
 62
     7
370
    25
100
AcDbLine
 10
-61.5182899632
 20
352.1451899026
 30
0.0
 11
-61.5182899632
 21
429.2266425446
 31
0.0
  0
LINE
  5
3DC
330
2A3
100
AcDbEntity
  8
0
  6
Continuous
 62
     7
370
    25
100
AcDbLine
 10
-33.7997041407
 20
443.5954253127
 30
0.0
 11
-35.2139177031
 21
444.4118334245
 31
0.0
  0
LINE
  5
3DD
330
2A3
100
AcDbEntity
  8
0
  6
Continuous
 62
     7
370
    25
100
AcDbLine
 10
-35.2139177031
 20
444.4118334245
 30
0.0
 11
-33.941125497
 21
445.1466007252
 31
0.0
  0
LINE
  5
3DE
330
2A3
100
AcDbEntity
  8
0
  6
Continuous
 62
     7
370
    25
100
AcDbLine
 10
-33.941125497
 20
445.1466007252
 30
0.0
 11
-32.5269119346
 21
444.3301926133
 31
0.0
  0
LINE
  5
3DF
330
2A3
100
AcDbEntity
  8
0
  6
Continuous
 62
     7
370
    25
100
AcDbLine
 10
-35.2139177031
 20
443.2691009281
 30
0.0
 11
-35.2139177031
 21
444.4118334245
 31
0.0
  0
LINE
  5
3E0
330
2A3
100
AcDbEntity
  8
0
  6
Continuous
 62
     7
370
    25
100
AcDbLine
 10
-56.4271211387
 20
351.0019796859
 30
0.0
 11
-55.1543289326
 21
350.2672123853
 31
0.0
  0
LINE
  5
3E1
330
2A3
100
AcDbEntity
  8
0
  6
Continuous
 62
     7
370
    25
100
AcDbLine
 10
-56.4271211387
 20
351.0019796859
 30
0.0
 11
-56.4271211387
 21
351.0725637675
 31
0.0
  0
LINE
  5
3E2
330
2A3
100
AcDbEntity
  8
0
  6
Continuous
 62
     7
370
    25
100
AcDbLine
 10
357.2303458554
 20
304.8998689798
 30
0.0
 11
65.9023520066
 21
136.7197979443
 31
0.0
  0
LINE
  5
3E3
330
2A3
100
AcDbEntity
  8
0
  6
Continuous
 62
     7
370
    25
100
AcDbLine
 10
357.2303458554
 20
-21.7164557745
 30
0.0
 11
357.2303458554
 21
304.8998689798
 31
0.0
  0
LINE
  5
3E4
330
2A3
100
AcDbEntity
  8
0
  6
Continuous
 62
     7
370
    25
100
AcDbLine
 10
60.1040764009
 20
-193.2438000684
 30
0.0
 11
357.2303458554
 21
-21.7164557745
 31
0.0
  0
LINE
  5
3E5
330
2A3
100
AcDbEntity
  8
0
  6
Continuous
 62
     7
370
    25
100
AcDbLine
 10
65.9023520066
 20
136.7197979443
 30
0.0
 11
65.9023520066
 21
-189.89652681
 31
0.0
  0
LINE
  5
3E6
330
2A3
100
AcDbEntity
  8
0
  6
Continuous
 62
     7
370
    25
100
AcDbLine
 10
53.033008589
 20
144.1491117619
 30
0.0
 11
65.9023520066
 21
136.7197979443
 31
0.0
  0
LINE
  5
3E7
330
2A3
100
AcDbEntity
  8
0
  6
Continuous
 62
     7
370
    25
100
AcDbLine
 10
344.3610024378
 20
312.3291827974
 30
0.0
 11
53.033008589
 21
144.1491117619
 31
0.0
  0
LINE
  5
3E8
330
2A3
100
AcDbEntity
  8
0
  6
Continuous
 62
     7
370
    25
100
AcDbLine
 10
344.3610024378
 20
312.3291827974
 30
0.0
 11
357.2303458554
 21
304.8998689798
 31
0.0
  0
LINE
  5
3E9
330
2A3
100
AcDbEntity
  8
0
  6
Continuous
 62
     7
370
    25
100
AcDbLine
 10
53.033008589
 20
144.1491117619
 30
0.0
 11
53.033008589
 21
139.6581372966
 31
0.0
  0
LINE
  5
3EA
330
2A3
100
AcDbEntity
  8
0
  6
Continuous
 62
     7
370
    25
100
AcDbLine
 10
-328.946074608
 20
360.1699682999
 30
0.0
 11
-334.9564822481
 21
356.7002338246
 31
0.0
  0
LINE
  5
3EB
330
2A3
100
AcDbEntity
  8
0
  6
Continuous
 62
     7
370
    25
100
AcDbLine
 10
-328.946074608
 20
360.1699682999
 30
0.0
 11
64.9124025129
 21
132.8003091572
 31
0.0
  0
LINE
  5
3EC
330
2A3
100
AcDbEntity
  8
0
  6
Continuous
 62
     7
370
    25
100
AcDbLine
 10
64.9124025129
 20
132.8003091572
 30
0.0
 11
58.9019948728
 21
129.330574682
 31
0.0
  0
LINE
  5
3ED
330
2A3
100
AcDbEntity
  8
0
  6
Continuous
 62
     7
370
    25
100
AcDbLine
 10
-334.9564822481
 20
348.5361527064
 30
0.0
 11
44.7598592491
 21
129.330574682
 31
0.0
  0
LINE
  5
3EE
330
2A3
100
AcDbEntity
  8
0
  6
Continuous
 62
     7
370
    25
100
AcDbLine
 10
58.9019948728
 20
129.330574682
 30
0.0
 11
58.9019948728
 21
66.7835484915
 31
0.0
  0
LINE
  5
3EF
330
2A3
100
AcDbEntity
  8
0
  6
Continuous
 62
     7
370
    25
100
AcDbLine
 10
44.7598592491
 20
66.7835484915
 30
0.0
 11
44.7598592491
 21
129.330574682
 31
0.0
  0
LINE
  5
3F0
330
2A3
100
AcDbEntity
  8
0
  6
Continuous
 62
     7
370
    25
100
AcDbLine
 10
-334.9564822481
 20
348.5361527064
 30
0.0
 11
-334.9564822481
 21
285.9891265159
 31
0.0
  0
LINE
  5
3F1
330
2A3
100
AcDbEntity
  8
0
  6
Continuous
 62
     7
370
    25
100
AcDbLine
 10
44.7598592491
 20
66.7835484915
 30
0.0
 11
-334.9564822481
 21
285.9891265159
 31
0.0
  0
LINE
  5
3F2
330
2A3
100
AcDbEntity
  8
0
  6
Continuous
 62
     7
370
    25
100
AcDbLine
 10
64.9124025129
 20
132.8003091572
 30
0.0
 11
64.9124025129
 21
70.2532829668
 31
0.0
  0
LINE
  5
3F3
330
2A3
100
AcDbEntity
  8
0
  6
Continuous
 62
     7
370
    25
100
AcDbLine
 10
64.9124025129
 20
70.2532829668
 30
0.0
 11
58.9019948728
 21
66.7835484915
 31
0.0
  0
LINE
  5
3F4
330
2A3
100
AcDbEntity
  8
0
  6
Continuous
 62
     7
370
    25
100
AcDbLine
 10
-76.2261110119
 20
294.6680948694
 30
0.0
 11
-76.2261110119
 21
214.2778387171
 31
0.0
  0
LINE
  5
3F5
330
2A3
100
AcDbEntity
  8
0
  6
Continuous
 62
     7
370
    25
100
AcDbLine
 10
-76.2261110119
 20
294.6680948694
 30
0.0
 11
-64.9124025129
 21
301.1993597639
 31
0.0
  0
LINE
  5
3F6
330
2A3
100
AcDbEntity
  8
0
  6
Continuous
 62
     7
370
    25
100
AcDbLine
 10
-91.0753534168
 20
235.467492657
 30
0.0
 11
-102.0034993842
 21
229.1588082741
 31
0.0
  0
LINE
  5
3F7
330
2A3
100
AcDbEntity
  8
0
  6
Continuous
 62
     7
370
    25
100
AcDbLine
 10
-89.7201888675
 20
222.0678040491
 30
0.0
 11
-91.0753534168
 21
235.467492657
 31
0.0
  0
LINE
  5
3F8
330
2A3
100
AcDbEntity
  8
0
  6
Continuous
 62
     7
370
    25
100
AcDbLine
 10
-96.0251008851
 20
244.0397778311
 30
0.0
 11
-111.9029943208
 21
234.8736650569
 31
0.0
  0
LINE
  5
3F9
330
2A3
100
AcDbEntity
  8
0
  6
Continuous
 62
     7
370
    25
100
AcDbLine
 10
-91.0753534168
 20
235.467492657
 30
0.0
 11
-96.0251008851
 21
238.3249210484
 31
0.0
  0
LINE
  5
3FA
330
2A3
100
AcDbEntity
  8
0
  6
Continuous
 62
     7
370
    25
100
AcDbLine
 10
-84.7217697
 20
312.6230826337
 30
0.0
 11
-84.7113923861
 21
312.6290733295
 31
0.0
  0
LINE
  5
3FB
330
2A3
100
AcDbEntity
  8
0
  6
Continuous
 62
     7
370
    25
100
AcDbLine
 10
-84.7113923861
 20
312.6290733295
 30
0.0
 11
-65.6901979002
 21
301.6483714835
 31
0.0
  0
LINE
  5
3FC
330
2A3
100
AcDbEntity
  8
0
  6
Continuous
 62
     7
370
    25
100
AcDbLine
 10
-65.6901979002
 20
301.6483714835
 30
0.0
 11
-64.6295377284
 21
302.2606775674
 31
0.0
  0
LINE
  5
3FD
330
2A3
100
AcDbEntity
  8
0
  6
Continuous
 62
     7
370
    25
100
AcDbLine
 10
-64.6295377284
 20
302.2606775674
 30
0.0
 11
-51.1945088859
 21
294.5048005051
 31
0.0
  0
LINE
  5
3FE
330
2A3
100
AcDbEntity
  8
0
  6
Continuous
 62
     7
370
    25
100
AcDbLine
 10
-51.1945088859
 20
294.5048005051
 30
0.0
 11
-52.2551690576
 21
293.8924944212
 31
0.0
  0
LINE
  5
3FF
330
2A3
100
AcDbEntity
  8
0
  6
Continuous
 62
     7
370
    25
100
AcDbLine
 10
-15.4149278299
 20
272.6250758501
 30
0.0
 11
-64.9124025129
 21
301.1993597639
 31
0.0
  0
LINE
  5
400
330
2A3
100
AcDbEntity
  8
0
  6
Continuous
 62
     7
370
    25
100
AcDbLine
 10
-26.7286363289
 20
266.0938109556
 30
0.0
 11
-93.3313952662
 21
304.5427652811
 31
0.0
  0
LINE
  5
401
330
2A3
100
AcDbEntity
  8
0
  6
Continuous
 62
     7
370
    25
100
AcDbLine
 10
-86.2603274544
 20
308.6248058402
 30
0.0
 11
-93.3313952662
 21
304.5427652811
 31
0.0
  0
LINE
  5
402
330
2A3
100
AcDbEntity
  8
0
  6
Continuous
 62
     7
370
    25
100
AcDbLine
 10
-51.1945088859
 20
294.5048005051
 30
0.0
 11
-51.1945088859
 21
293.2801883373
 31
0.0
  0
LINE
  5
403
330
2A3
100
AcDbEntity
  8
0
  6
Continuous
 62
     7
370
    25
100
AcDbLine
 10
-93.439639517
 20
304.476800113
 30
0.0
 11
-93.3313952662
 21
304.5427652811
 31
0.0
  0
LINE
  5
404
330
2A3
100
AcDbEntity
  8
0
  6
Continuous
 62
     7
370
    25
100
AcDbLine
 10
-96.0251008851
 20
302.9842450351
 30
0.0
 11
-96.0251008851
 21
238.3249210484
 31
0.0
  0
LINE
  5
405
330
2A3
100
AcDbEntity
  8
0
  6
Continuous
 62
     7
370
    25
100
AcDbLine
 10
28.8297536215
 20
189.1108904802
 30
0.0
 11
40.1434621205
 21
195.6421553748
 31
0.0
  0
LINE
  5
406
330
2A3
100
AcDbEntity
  8
0
  6
Continuous
 62
     7
370
    25
100
AcDbLine
 10
-26.7286363289
 20
266.0938109556
 30
0.0
 11
-15.4149278299
 21
272.6250758501
 31
0.0
  0
LINE
  5
407
330
2A3
100
AcDbEntity
  8
0
  6
Continuous
 62
     7
370
    25
100
AcDbLine
 10
45.9619407771
 20
-193.2438000684
 30
0.0
 11
45.9619407771
 21
54.9846067448
 31
0.0
  0
LINE
  5
408
330
2A3
100
AcDbEntity
  8
0
  6
Continuous
 62
     7
370
    25
100
AcDbLine
 10
60.1040764009
 20
54.9846067448
 30
0.0
 11
60.1040764009
 21
-193.2438000684
 31
0.0
  0
LINE
  5
409
330
2A3
100
AcDbEntity
  8
0
  6
Continuous
 62
     7
370
    25
100
AcDbLine
 10
-83.9765822889
 20
131.6294683611
 30
0.0
 11
46.6690475583
 21
56.2093516126
 31
0.0
  0
LINE
  5
40A
330
2A3
100
AcDbEntity
  8
0
  6
Continuous
 62
     7
370
    25
100
AcDbLine
 10
59.3969696197
 20
56.2093516126
 30
0.0
 11
64.4881384442
 21
59.1484208152
 31
0.0
  0
LINE
  5
40B
330
2A3
100
AcDbEntity
  8
0
  6
Continuous
 62
     7
370
    25
100
AcDbLine
 10
45.9619407771
 20
54.9846067448
 30
0.0
 11
-84.6836890701
 21
130.4047234933
 31
0.0
  0
LINE
  5
40C
330
2A3
100
AcDbEntity
  8
0
  6
Continuous
 62
     7
370
    25
100
AcDbLine
 10
65.9023520066
 20
58.3318800033
 30
0.0
 11
60.1040764009
 21
54.9846067448
 31
0.0
  0
LINE
  5
40D
330
2A3
100
AcDbEntity
  8
0
  6
Continuous
 62
     7
370
    25
100
AcDbLine
 10
-333.7544007201
 20
25.961777956
 30
0.0
 11
45.9619407771
 21
-193.2438000684
 31
0.0
  0
LINE
  5
40E
330
2A3
100
AcDbEntity
  8
0
  6
Continuous
 62
     7
370
    25
100
AcDbLine
 10
-333.7544007201
 20
274.1901847692
 30
0.0
 11
-333.7544007201
 21
25.961777956
 31
0.0
  0
LINE
  5
40F
330
2A3
100
AcDbEntity
  8
0
  6
Continuous
 62
     7
370
    25
100
AcDbLine
 10
-203.1087708729
 20
198.7700680208
 30
0.0
 11
-333.7544007201
 21
274.1901847692
 31
0.0
  0
LINE
  5
410
330
2A3
100
AcDbEntity
  8
0
  6
Continuous
 62
     7
370
    25
100
AcDbLine
 10
-333.0472939389
 20
275.414929637
 30
0.0
 11
-202.4016640917
 21
199.9948128886
 31
0.0
  0
LINE
  5
411
330
2A3
100
AcDbEntity
  8
0
  6
Continuous
 62
     8
370
    25
100
AcDbLine
 10
-32.5269119346
 20
364.7995156359
 30
0.0
 11
-32.5269119346
 21
365.6421473001
 31
0.0
  0
LINE
  5
412
330
2A3
100
AcDbEntity
  8
0
  6
Continuous
 62
     8
370
    25
100
AcDbLine
 10
-32.5269119346
 20
440.6819957823
 30
0.0
 11
-32.5269119346
 21
441.8809682779
 31
0.0
  0
LINE
  5
413
330
2A3
100
AcDbEntity
  8
0
  6
Continuous
 62
     8
370
    25
100
AcDbLine
 10
-33.7997041407
 20
443.2691009281
 30
0.0
 11
-33.7997041407
 21
443.5954253127
 31
0.0
  0
LINE
  5
414
330
2A3
100
AcDbEntity
  8
0
  6
Continuous
 62
     8
370
    25
100
AcDbLine
 10
-75.7726609775
 20
136.3654913251
 30
0.0
 11
-83.9765822889
 21
131.6294683611
 31
0.0
  0
LINE
  5
415
330
2A3
100
AcDbEntity
  8
0
  6
Continuous
 62
     8
370
    25
100
AcDbLine
 10
64.4881384442
 20
59.1484208152
 30
0.0
 11
53.9615866924
 21
65.2252697922
 31
0.0
  0
LINE
  5
416
330
2A3
100
AcDbEntity
  8
0
  6
Continuous
 62
     8
370
    25
100
AcDbLine
 10
-84.2961211112
 20
131.7258054033
 30
0.0
 11
-76.0158697554
 21
136.505892764
 31
0.0
  0
LINE
  5
417
330
2A3
100
AcDbEntity
  8
0
  6
Continuous
 62
     8
370
    25
100
AcDbLine
 10
-193.8018739134
 20
204.5023056201
 30
0.0
 11
-202.0821252693
 21
199.7222182594
 31
0.0
  0
LINE
  5
418
330
2A3
100
AcDbEntity
  8
0
  6
Continuous
 62
     8
370
    25
100
AcDbLine
 10
-202.4016640917
 20
199.9948128886
 30
0.0
 11
-194.1977427803
 21
204.7308358525
 31
0.0
  0
LINE
  5
419
330
2A3
100
AcDbEntity
  8
0
  6
Continuous
 62
     8
370
    25
100
AcDbLine
 10
-331.2073336582
 20
283.8247891042
 30
0.0
 11
-333.0472939389
 21
282.7626026434
 31
0.0
  0
ARC
  5
41A
330
2A3
100
AcDbEntity
  8
0
  6
Continuous
 62
     7
370
    25
100
AcDbCircle
 10
-7.2423331786
 20
430.8320136119
 30
0.0
 40
4.112737295198022
100
AcDbArc
 50
168.7427253507
 51
240.5710930715
  0
ARC
  5
41B
330
2A3
100
AcDbEntity
  8
0
  6
Continuous
 62
     7
370
    25
100
AcDbCircle
 10
-1.6150848688
 20
397.4055316654
 30
0.0
 40
4.112684626997379
100
AcDbArc
 50
179.4285269296
 51
251.2523714443
  0
ARC
  5
41C
330
2A3
100
AcDbEntity
  8
0
  6
Continuous
 62
     7
370
    25
100
AcDbCircle
 10
-7.2423331786
 20
378.5734016512
 30
0.0
 40
4.112737295200031
100
AcDbArc
 50
168.7427253508
 51
240.5710930714
  0
ARC
  5
41D
330
2A3
100
AcDbEntity
  8
0
  6
Continuous
 62
     7
370
    25
100
AcDbCircle
 10
-57.9827560573
 20
432.5043676877
 30
0.0
 40
4.611065723735384
100
AcDbArc
 50
242.6096722366
 51
297.3903277634
  0
ARC
  5
41E
330
2A3
100
AcDbEntity
  8
0
  6
Continuous
 62
     7
370
    25
100
AcDbCircle
 10
-57.9827560573
 20
355.4229150457
 30
0.0
 40
4.611065723735706
100
AcDbArc
 50
242.6096722366
 51
297.3903277634
  0
ARC
  5
41F
330
2A3
100
AcDbEntity
  8
0
  6
Continuous
 62
     7
370
    25
100
AcDbCircle
 10
-57.9827560573
 20
430.7826550354
 30
0.0
 40
1.844426289493566
100
AcDbArc
 50
242.6096722366
 51
297.3903277634
  0
ARC
  5
420
330
2A3
100
AcDbEntity
  8
0
  6
Continuous
 62
     7
370
    25
100
AcDbCircle
 10
-42.8053453506
 20
398.5669259323
 30
0.0
 40
2.366830288459903
100
AcDbArc
 50
65.3810279526
 51
125.9294304765
  0
ARC
  5
421
330
2A3
100
AcDbEntity
  8
0
  6
Continuous
 62
     7
370
    25
100
AcDbCircle
 10
-34.0282011031
 20
443.0643568838
 30
0.0
 40
0.5781388569863362
100
AcDbArc
 50
0.2878271118
 51
66.7197732297
  0
ARC
  5
422
330
2A3
100
AcDbEntity
  8
0
  6
Continuous
 62
     7
370
    25
100
AcDbCircle
 10
-32.991693015
 20
443.1055804456
 30
0.0
 40
1.309845950502791
100
AcDbArc
 50
290.7834207995
 51
69.2165792005
  0
ARC
  5
423
330
2A3
100
AcDbEntity
  8
0
  6
Continuous
 62
     7
370
    25
100
AcDbCircle
 10
-33.1496034656
 20
366.1738469343
 30
0.0
 40
1.508817835481276
100
AcDbArc
 50
294.3746582936
 51
354.3052007488
  0
ARC
  5
424
330
2A3
100
AcDbEntity
  8
0
  6
Continuous
 62
     7
370
    25
100
AcDbCircle
 10
51.830927061
 20
142.9776855316
 30
0.0
 40
15.37021907911688
100
AcDbArc
 50
242.6096722366
 51
297.3903277634
  0
ARC
  5
425
330
2A3
100
AcDbEntity
  8
0
  6
Continuous
 62
     7
370
    25
100
AcDbCircle
 10
51.830927061
 20
80.4306593411
 30
0.0
 40
15.37021907911734
100
AcDbArc
 50
242.6096722366
 51
297.3903277634
  0
ARC
  5
426
330
2A3
100
AcDbEntity
  8
0
  6
Continuous
 62
     7
370
    25
100
AcDbCircle
 10
-332.8808438113
 20
290.5702308441
 30
0.0
 40
5.029392784937902
100
AcDbArc
 50
185.6947992512
 51
245.6253417064
  0
ARC
  5
427
330
2A3
100
AcDbEntity
  8
0
  6
Continuous
 62
     7
370
    25
100
AcDbCircle
 10
-103.4533096149
 20
305.0245692032
 30
0.0
 40
2.491808154351463
100
AcDbArc
 50
305.3793155066
 51
5.9328648868
  0
ARC
  5
428
330
2A3
100
AcDbEntity
  8
0
  6
Continuous
 62
     7
370
    25
100
AcDbCircle
 10
112.9759419826
 20
211.8545352208
 30
0.0
 40
87.16567209507002
100
AcDbArc
 50
195.124915779
 51
229.19821079
  0
ARC
  5
429
330
2A3
100
AcDbEntity
  8
0
  6
Continuous
 62
     7
370
    25
100
AcDbCircle
 10
124.2896504816
 20
218.3858001154
 30
0.0
 40
87.16567209507038
100
AcDbArc
 50
195.124915779
 51
229.19821079
  0
ARC
  5
42A
330
2A3
100
AcDbEntity
  8
0
  6
Continuous
 62
     7
370
    25
100
AcDbCircle
 10
53.033008589
 20
68.4917513772
 30
0.0
 40
13.83319717120548
100
AcDbArc
 50
242.6096722366
 51
297.3903277634
  0
ARC
  5
42B
330
2A3
100
AcDbEntity
  8
0
  6
Continuous
 62
     7
370
    25
100
AcDbCircle
 10
58.5688602995
 20
54.9147458926
 30
0.0
 40
1.536804807572205
100
AcDbArc
 50
2.6054784857
 51
57.39452166
  0
ARC
  5
42C
330
2A3
100
AcDbEntity
  8
0
  6
Continuous
 62
     7
370
    25
100
AcDbCircle
 10
53.033008589
 20
68.6317175944
 30
0.0
 40
15.37021907911711
100
AcDbArc
 50
242.6096722366
 51
297.3903277634
  0
ARC
  5
42D
330
2A3
100
AcDbEntity
  8
0
  6
Continuous
 62
     7
370
    25
100
AcDbCircle
 10
47.4971568785
 20
54.9147458926
 30
0.0
 40
1.536804807572136
100
AcDbArc
 50
122.60547834
 51
177.3945215143
  0
ARC
  5
42E
330
2A3
100
AcDbEntity
  8
0
  6
Continuous
 62
     7
370
    25
100
AcDbCircle
 10
53.033008589
 20
-179.5966892189
 30
0.0
 40
15.37021907911754
100
AcDbArc
 50
242.6096722366
 51
297.3903277634
  0
ARC
  5
42F
330
2A3
100
AcDbEntity
  8
0
  6
Continuous
 62
     7
370
    25
100
AcDbCircle
 10
-83.1484729687
 20
130.334862641
 30
0.0
 40
1.536804807571982
100
AcDbArc
 50
122.60547834
 51
177.3945215143
  0
ARC
  5
430
330
2A3
100
AcDbEntity
  8
0
  6
Continuous
 62
     7
370
    25
100
AcDbCircle
 10
-84.3153623847
 20
131.0838791534
 30
0.0
 40
0.6422145567668507
100
AcDbArc
 50
58.1620535067
 51
88.2831146469
  0
ARC
  5
431
330
2A3
100
AcDbEntity
  8
0
  6
Continuous
 62
     7
370
    25
100
AcDbCircle
 10
-83.6403560437
 20
130.8160308561
 30
0.0
 40
1.121480071385655
100
AcDbArc
 50
125.7840455935
 51
201.5155701249
  0
ARC
  5
432
330
2A3
100
AcDbEntity
  8
0
  6
Continuous
 62
     7
370
    25
100
AcDbCircle
 10
-200.4721228551
 20
196.9566908987
 30
0.0
 40
3.200038961726726
100
AcDbArc
 50
120.2066084927
 51
145.4814203815
  0
ARC
  5
433
330
2A3
100
AcDbEntity
  8
0
  6
Continuous
 62
     7
370
    25
100
AcDbCircle
 10
-201.5735547715
 20
198.7002071685
 30
0.0
 40
1.536804807571942
100
AcDbArc
 50
122.60547834
 51
177.3945215143
  0
ARC
  5
434
330
2A3
100
AcDbEntity
  8
0
  6
Continuous
 62
     7
370
    25
100
AcDbCircle
 10
-203.0531426388
 20
198.9075606046
 30
0.0
 40
1.267494310224335
100
AcDbArc
 50
39.9957524369
 51
59.0700759218
  0
ARC
  5
435
330
2A3
100
AcDbEntity
  8
0
  6
Continuous
 62
     7
370
    25
100
AcDbCircle
 10
-332.2191846187
 20
274.120323917
 30
0.0
 40
1.536804807572241
100
AcDbArc
 50
122.60547834
 51
177.3945215143
  0
ARC
  5
436
330
2A3
100
AcDbEntity
  8
0
  6
Continuous
 62
     7
370
    25
100
AcDbCircle
 10
-331.6787622833
 20
30.5428822841
 30
0.0
 40
5.029392784937817
100
AcDbArc
 50
185.6947992512
 51
245.6253417064
  0
ARC
  5
437
330
2A3
100
AcDbEntity
  8
0
  6
Continuous
 62
     8
370
    25
100
AcDbCircle
 10
-331.6595475271
 20
278.7939902856
 30
0.0
 40
5.058007031671607
100
AcDbArc
 50
186.7447695817
 51
245.5332102614
  0
ARC
  5
438
330
2A3
100
AcDbEntity
  8
0
  6
Continuous
 62
     8
370
    25
100
AcDbCircle
 10
-333.3402287448
 20
282.3536802422
 30
0.0
 40
0.5030192150561528
100
AcDbArc
 50
54.3837811472
 51
114.2915234561
  0
VIEWPORT
  5
43F
330
2A3
100
AcDbEntity
  8
0
100
AcDbViewport
 10
0.0
 20
0.0
 30
0.0
 40
205.6
 41
156.0
 68
     1
 69
     1
 12
0.0
 22
200.0
 13
0.0
 23
0.0
 14
10.0
 24
10.0
 15
10.0
 25
10.0
 16
0.0
 26
0.0
 36
1.0
 17
0.0
 27
0.0
 37
0.0
 42
50.0
 43
0.0
 44
0.0
 45
432.1624902724
 50
0.0
 51
0.0
 72
   100
 90
   557152
  1

281
     0
 71
     1
 74
     0
110
0.0
120
0.0
130
0.0
111
1.0
121
0.0
131
0.0
112
0.0
122
1.0
132
0.0
 79
     0
146
0.0
  0
ENDBLK
  5
2A6
330
2A3
100
AcDbEntity
  8
0
100
AcDbBlockEnd
  0
ENDSEC
  0
SECTION
  2
ENTITIES
  0
LINE
  5
A4
330
1F
100
AcDbEntity
  8
0
  6
Continuous
 62
     7
370
    25
100
AcDbLine
 10
-261.0
 20
400.0
 30
0.0
 11
-279.2
 21
400.0
 31
0.0
  0
LINE
  5
A5
330
1F
100
AcDbEntity
  8
0
  6
Continuous
 62
     7
370
    25
100
AcDbLine
 10
-261.0
 20
400.0
 30
0.0
 11
-261.0
 21
394.5
 31
0.0
  0
LINE
  5
A6
330
1F
100
AcDbEntity
  8
0
  6
Continuous
 62
     7
370
    25
100
AcDbLine
 10
-261.0
 20
317.9
 30
0.0
 11
-261.0
 21
305.0
 31
0.0
  0
LINE
  5
A7
330
1F
100
AcDbEntity
  8
0
  6
Continuous
 62
     7
370
    25
100
AcDbLine
 10
-279.2
 20
400.0
 30
0.0
 11
-279.2
 21
0.0
 31
0.0
  0
LINE
  5
A8
330
1F
100
AcDbEntity
  8
0
  6
Continuous
 62
     7
370
    25
100
AcDbLine
 10
261.0
 20
400.0
 30
0.0
 11
261.0
 21
394.5
 31
0.0
  0
LINE
  5
A9
330
1F
100
AcDbEntity
  8
0
  6
Continuous
 62
     7
370
    25
100
AcDbLine
 10
261.0
 20
305.0
 30
0.0
 11
261.0
 21
317.9
 31
0.0
  0
LINE
  5
AA
330
1F
100
AcDbEntity
  8
0
  6
Continuous
 62
     7
370
    25
100
AcDbLine
 10
261.0
 20
400.0
 30
0.0
 11
279.2
 21
400.0
 31
0.0
  0
LINE
  5
AB
330
1F
100
AcDbEntity
  8
0
  6
Continuous
 62
     7
370
    25
100
AcDbLine
 10
279.2
 20
400.0
 30
0.0
 11
279.2
 21
0.0
 31
0.0
  0
LINE
  5
AC
330
1F
100
AcDbEntity
  8
0
  6
Continuous
 62
     7
370
    25
100
AcDbLine
 10
277.8
 20
394.5
 30
0.0
 11
277.8
 21
317.9
 31
0.0
  0
LINE
  5
AD
330
1F
100
AcDbEntity
  8
0
  6
Continuous
 62
     7
370
    25
100
AcDbLine
 10
277.8
 20
317.9
 30
0.0
 11
-279.2
 21
317.9
 31
0.0
  0
LINE
  5
AE
330
1F
100
AcDbEntity
  8
0
  6
Continuous
 62
     7
370
    25
100
AcDbLine
 10
267.8
 20
317.9
 30
0.0
 11
267.8
 21
394.5
 31
0.0
  0
LINE
  5
AF
330
1F
100
AcDbEntity
  8
0
  6
Continuous
 62
     7
370
    25
100
AcDbLine
 10
-279.2
 20
394.5
 30
0.0
 11
277.8
 21
394.5
 31
0.0
  0
LINE
  5
B0
330
1F
100
AcDbEntity
  8
0
  6
Continuous
 62
     7
370
    25
100
AcDbLine
 10
-269.2
 20
394.5
 30
0.0
 11
-269.2
 21
317.9
 31
0.0
  0
LINE
  5
B1
330
1F
100
AcDbEntity
  8
0
  6
Continuous
 62
     7
370
    25
100
AcDbLine
 10
-279.2
 20
0.0
 30
0.0
 11
279.2
 21
0.0
 31
0.0
  0
LINE
  5
B2
330
1F
100
AcDbEntity
  8
0
  6
Continuous
 62
     7
370
    25
100
AcDbLine
 10
269.2
 20
0.0
 30
0.0
 11
269.2
 21
305.0
 31
0.0
  0
LINE
  5
B3
330
1F
100
AcDbEntity
  8
0
  6
Continuous
 62
     7
370
    25
100
AcDbLine
 10
279.2
 20
304.0
 30
0.0
 11
84.4391784053
 21
304.0
 31
0.0
  0
LINE
  5
B4
330
1F
100
AcDbEntity
  8
0
  6
Continuous
 62
     7
370
    25
100
AcDbLine
 10
-83.0391784053
 20
304.0
 30
0.0
 11
-277.8
 21
304.0
 31
0.0
  0
LINE
  5
B5
330
1F
100
AcDbEntity
  8
0
  6
Continuous
 62
     7
370
    25
100
AcDbLine
 10
-276.8
 20
305.0
 30
0.0
 11
-83.0391784053
 21
305.0
 31
0.0
  0
LINE
  5
B6
330
1F
100
AcDbEntity
  8
0
  6
Continuous
 62
     7
370
    25
100
AcDbLine
 10
-267.8
 20
305.0
 30
0.0
 11
-267.8
 21
0.0
 31
0.0
  0
LINE
  5
B7
330
1F
100
AcDbEntity
  8
0
  6
Continuous
 62
     7
370
    25
100
AcDbLine
 10
84.4391784053
 20
305.0
 30
0.0
 11
278.2
 21
305.0
 31
0.0
  0
LINE
  5
B8
330
1F
100
AcDbEntity
  8
0
  6
Continuous
 62
     7
370
    25
100
AcDbLine
 10
-277.8
 20
0.0
 30
0.0
 11
-277.8
 21
304.0
 31
0.0
  0
LINE
  5
B9
330
1F
100
AcDbEntity
  8
0
  6
Continuous
 62
     7
370
    25
100
AcDbLine
 10
83.987282269
 20
304.8920705589
 30
0.0
 11
84.4391784053
 21
304.0
 31
0.0
  0
LINE
  5
BA
330
1F
100
AcDbEntity
  8
0
  6
Continuous
 62
     7
370
    25
100
AcDbLine
 10
-82.587282269
 20
304.8920705589
 30
0.0
 11
-83.0391784053
 21
304.0
 31
0.0
  0
LINE
  5
BB
330
1F
100
AcDbEntity
  8
0
  6
Continuous
 62
     7
370
    25
100
AcDbLine
 10
-83.0391784053
 20
305.0
 30
0.0
 11
-83.0391784053
 21
304.0
 31
0.0
  0
LINE
  5
BC
330
1F
100
AcDbEntity
  8
0
  6
Continuous
 62
     7
370
    25
100
AcDbLine
 10
84.4391784053
 20
304.0
 30
0.0
 11
84.4391784053
 21
305.0
 31
0.0
  0
ARC
  5
BD
330
1F
100
AcDbEntity
  8
0
  6
Continuous
 62
     7
370
    25
100
AcDbCircle
 10
-276.8
 20
304.0
 30
0.0
 40
1.000000000000171
100
AcDbArc
 50
90.0
 51
180.0
  0
ARC
  5
BE
330
1F
100
AcDbEntity
  8
0
  6
Continuous
 62
     7
370
    25
100
AcDbCircle
 10
278.2
 20
304.0
 30
0.0
 40
1.0
100
AcDbArc
 50
0.0
 51
90.0
  0
ARC
  5
BF
330
1F
100
AcDbEntity
  8
0
  6
Continuous
 62
     7
370
    25
100
AcDbCircle
 10
0.7
 20
469.30625
 30
0.0
 40
184.3062500000009
100
AcDbArc
 50
243.1345966839
 51
296.8654033161
  0
ARC
  5
C0
330
1F
100
AcDbEntity
  8
0
  6
Continuous
 62
     7
370
    25
100
AcDbCircle
 10
0.7
 20
469.30625
 30
0.0
 40
185.3062500000011
100
AcDbArc
 50
243.1345966839
 51
296.8654033161
  0
ARC
  5
C1
330
1F
100
AcDbEntity
  8
0
  6
Continuous
 62
     7
370
    25
100
AcDbCircle
 10
-83.0391784053
 20
304.0
 30
0.0
 40
1.000000000000227
100
AcDbArc
 50
63.1345966839
 51
90.0
  0
ARC
  5
C2
330
1F
100
AcDbEntity
  8
0
  6
Continuous
 62
     7
370
    25
100
AcDbCircle
 10
84.4391784053
 20
304.0
 30
0.0
 40
1.000000000000455
100
AcDbArc
 50
90.0
 51
116.8654033161
  0
LINE
  5
132
330
1B
100
AcDbEntity
 67
     1
  8
0
  6
Continuous
 62
     7
370
    25
100
AcDbLine
 10
256.0
 20
212.0
 30
0.0
 11
256.0
 21
310.0
 31
0.0
  0
LINE
  5
133
330
1B
100
AcDbEntity
 67
     1
  8
0
  6
Continuous
 62
     7
370
    25
100
AcDbLine
 10
223.1
 20
232.7316441283
 30
0.0
 11
239.1
 21
232.7316441283
 31
0.0
  0
LINE
  5
134
330
1B
100
AcDbEntity
 67
     1
  8
0
  6
Continuous
 62
     7
370
    25
100
AcDbLine
 10
239.1
 20
226.7316441283
 30
0.0
 11
223.1
 21
226.7316441283
 31
0.0
  0
LINE
  5
135
330
1B
100
AcDbEntity
 67
     1
  8
0
  6
Continuous
 62
     7
370
    25
100
AcDbLine
 10
228.1
 20
256.7316441283
 30
0.0
 11
228.1
 21
266.7316441283
 31
0.0
  0
LINE
  5
136
330
1B
100
AcDbEntity
 67
     1
  8
0
  6
Continuous
 62
     7
370
    25
100
AcDbLine
 10
223.1
 20
296.7316441283
 30
0.0
 11
239.1
 21
296.7316441283
 31
0.0
  0
LINE
  5
137
330
1B
100
AcDbEntity
 67
     1
  8
0
  6
Continuous
 62
     7
370
    25
100
AcDbLine
 10
239.1
 20
290.7316441283
 30
0.0
 11
223.1
 21
290.7316441283
 31
0.0
  0
LINE
  5
138
330
1B
100
AcDbEntity
 67
     1
  8
0
  6
Continuous
 62
     7
370
    25
100
AcDbLine
 10
234.1
 20
266.7316441283
 30
0.0
 11
234.1
 21
256.7316441283
 31
0.0
  0
LINE
  5
139
330
1B
100
AcDbEntity
 67
     1
  8
0
  6
Continuous
 62
     7
370
    25
100
AcDbLine
 10
208.1
 20
306.7316441283
 30
0.0
 11
256.0
 21
306.7316441283
 31
0.0
  0
LINE
  5
13A
330
1B
100
AcDbEntity
 67
     1
  8
0
  6
Continuous
 62
     7
370
    25
100
AcDbLine
 10
208.1
 20
216.7316441283
 30
0.0
 11
208.1
 21
306.7316441283
 31
0.0
  0
LINE
  5
13B
330
1B
100
AcDbEntity
 67
     1
  8
0
  6
Continuous
 62
     7
370
    25
100
AcDbLine
 10
256.0
 20
216.7316441283
 30
0.0
 11
208.1
 21
216.7316441283
 31
0.0
  0
LINE
  5
13C
330
1B
100
AcDbEntity
 67
     1
  8
0
  6
Continuous
 62
     7
370
    25
100
AcDbLine
 10
-250.7
 20
47.5
 30
0.0
 11
-250.7
 21
31.5
 31
0.0
  0
LINE
  5
13D
330
1B
100
AcDbEntity
 67
     1
  8
0
  6
Continuous
 62
     7
370
    25
100
AcDbLine
 10
-250.7
 20
47.5
 30
0.0
 11
249.3
 21
47.5
 31
0.0
  0
LINE
  5
13E
330
1B
100
AcDbEntity
 67
     1
  8
0
  6
Continuous
 62
     7
370
    25
100
AcDbLine
 10
-250.7
 20
31.5
 30
0.0
 11
249.3
 21
31.5
 31
0.0
  0
LINE
  5
13F
330
1B
100
AcDbEntity
 67
     1
  8
0
  6
Continuous
 62
     7
370
    25
100
AcDbLine
 10
249.3
 20
47.5
 30
0.0
 11
249.3
 21
31.5
 31
0.0
  0
LINE
  5
140
330
1B
100
AcDbEntity
 67
     1
  8
0
  6
Continuous
 62
     7
370
    25
100
AcDbLine
 10
-279.2
 20
0.0
 30
0.0
 11
279.2
 21
0.0
 31
0.0
  0
LINE
  5
141
330
1B
100
AcDbEntity
 67
     1
  8
0
  6
Continuous
 62
     7
370
    25
100
AcDbLine
 10
279.2
 20
0.0
 30
0.0
 11
279.2
 21
400.0
 31
0.0
  0
LINE
  5
142
330
1B
100
AcDbEntity
 67
     1
  8
0
  6
Continuous
 62
     7
370
    25
100
AcDbLine
 10
261.0
 20
400.0
 30
0.0
 11
279.2
 21
400.0
 31
0.0
  0
LINE
  5
143
330
1B
100
AcDbEntity
 67
     1
  8
0
  6
Continuous
 62
     7
370
    25
100
AcDbLine
 10
261.0
 20
0.0
 30
0.0
 11
261.0
 21
400.0
 31
0.0
  0
LINE
  5
144
330
1B
100
AcDbEntity
 67
     1
  8
0
  6
Continuous
 62
     7
370
    25
100
AcDbLine
 10
256.0
 20
308.2
 30
0.0
 11
261.0
 21
308.2
 31
0.0
  0
LINE
  5
145
330
1B
100
AcDbEntity
 67
     1
  8
0
  6
Continuous
 62
     7
370
    25
100
AcDbLine
 10
259.0
 20
308.2
 30
0.0
 11
259.0
 21
213.8
 31
0.0
  0
LINE
  5
146
330
1B
100
AcDbEntity
 67
     1
  8
0
  6
Continuous
 62
     7
370
    25
100
AcDbLine
 10
261.0
 20
213.8
 30
0.0
 11
256.0
 21
213.8
 31
0.0
  0
LINE
  5
147
330
1B
100
AcDbEntity
 67
     1
  8
0
  6
Continuous
 62
     7
370
    25
100
AcDbLine
 10
257.8
 20
310.0
 30
0.0
 11
256.0
 21
310.0
 31
0.0
  0
LINE
  5
148
330
1B
100
AcDbEntity
 67
     1
  8
0
  6
Continuous
 62
     7
370
    25
100
AcDbLine
 10
257.8
 20
310.0
 30
0.0
 11
257.8
 21
308.2
 31
0.0
  0
LINE
  5
149
330
1B
100
AcDbEntity
 67
     1
  8
0
  6
Continuous
 62
     7
370
    25
100
AcDbLine
 10
257.8
 20
212.0
 30
0.0
 11
256.0
 21
212.0
 31
0.0
  0
LINE
  5
14A
330
1B
100
AcDbEntity
 67
     1
  8
0
  6
Continuous
 62
     7
370
    25
100
AcDbLine
 10
257.8
 20
213.8
 30
0.0
 11
257.8
 21
212.0
 31
0.0
  0
LINE
  5
14B
330
1B
100
AcDbEntity
 67
     1
  8
0
  6
Continuous
 62
     7
370
    25
100
AcDbLine
 10
-256.0
 20
310.0
 30
0.0
 11
-256.0
 21
212.0
 31
0.0
  0
LINE
  5
14C
330
1B
100
AcDbEntity
 67
     1
  8
0
  6
Continuous
 62
     7
370
    25
100
AcDbLine
 10
-256.0
 20
213.8
 30
0.0
 11
-261.0
 21
213.8
 31
0.0
  0
LINE
  5
14D
330
1B
100
AcDbEntity
 67
     1
  8
0
  6
Continuous
 62
     7
370
    25
100
AcDbLine
 10
-259.0
 20
213.8
 30
0.0
 11
-259.0
 21
308.2
 31
0.0
  0
LINE
  5
14E
330
1B
100
AcDbEntity
 67
     1
  8
0
  6
Continuous
 62
     7
370
    25
100
AcDbLine
 10
-261.0
 20
308.2
 30
0.0
 11
-256.0
 21
308.2
 31
0.0
  0
LINE
  5
14F
330
1B
100
AcDbEntity
 67
     1
  8
0
  6
Continuous
 62
     7
370
    25
100
AcDbLine
 10
-257.8
 20
310.0
 30
0.0
 11
-256.0
 21
310.0
 31
0.0
  0
LINE
  5
150
330
1B
100
AcDbEntity
 67
     1
  8
0
  6
Continuous
 62
     7
370
    25
100
AcDbLine
 10
-257.8
 20
308.2
 30
0.0
 11
-257.8
 21
310.0
 31
0.0
  0
LINE
  5
151
330
1B
100
AcDbEntity
 67
     1
  8
0
  6
Continuous
 62
     7
370
    25
100
AcDbLine
 10
-257.8
 20
212.0
 30
0.0
 11
-256.0
 21
212.0
 31
0.0
  0
LINE
  5
152
330
1B
100
AcDbEntity
 67
     1
  8
0
  6
Continuous
 62
     7
370
    25
100
AcDbLine
 10
-257.8
 20
212.0
 30
0.0
 11
-257.8
 21
213.8
 31
0.0
  0
LINE
  5
153
330
1B
100
AcDbEntity
 67
     1
  8
0
  6
Continuous
 62
     7
370
    25
100
AcDbLine
 10
-261.0
 20
18.2
 30
0.0
 11
261.0
 21
18.2
 31
0.0
  0
LINE
  5
154
330
1B
100
AcDbEntity
 67
     1
  8
0
  6
Continuous
 62
     7
370
    25
100
AcDbLine
 10
-261.0
 20
0.0
 30
0.0
 11
-261.0
 21
400.0
 31
0.0
  0
LINE
  5
155
330
1B
100
AcDbEntity
 67
     1
  8
0
  6
Continuous
 62
     7
370
    25
100
AcDbLine
 10
-279.2
 20
0.0
 30
0.0
 11
-279.2
 21
400.0
 31
0.0
  0
LINE
  5
156
330
1B
100
AcDbEntity
 67
     1
  8
0
  6
Continuous
 62
     7
370
    25
100
AcDbLine
 10
-261.0
 20
400.0
 30
0.0
 11
-279.2
 21
400.0
 31
0.0
  0
LINE
  5
157
330
1B
100
AcDbEntity
 67
     1
  8
0
  6
Continuous
 62
     7
370
    25
100
AcDbLine
 10
261.0
 20
394.5
 30
0.0
 11
-261.0
 21
394.5
 31
0.0
  0
LINE
  5
158
330
1B
100
AcDbEntity
 67
     1
  8
0
  6
Continuous
 62
     7
370
    25
100
AcDbLine
 10
-208.1
 20
306.7316441283
 30
0.0
 11
-208.1
 21
216.7316441283
 31
0.0
  0
LINE
  5
159
330
1B
100
AcDbEntity
 67
     1
  8
0
  6
Continuous
 62
     7
370
    25
100
AcDbLine
 10
-208.1
 20
216.7316441283
 30
0.0
 11
-256.0
 21
216.7316441283
 31
0.0
  0
LINE
  5
15A
330
1B
100
AcDbEntity
 67
     1
  8
0
  6
Continuous
 62
     7
370
    25
100
AcDbLine
 10
-223.1
 20
290.7316441283
 30
0.0
 11
-239.1
 21
290.7316441283
 31
0.0
  0
LINE
  5
15B
330
1B
100
AcDbEntity
 67
     1
  8
0
  6
Continuous
 62
     7
370
    25
100
AcDbLine
 10
-239.1
 20
296.7316441283
 30
0.0
 11
-223.1
 21
296.7316441283
 31
0.0
  0
LINE
  5
15C
330
1B
100
AcDbEntity
 67
     1
  8
0
  6
Continuous
 62
     7
370
    25
100
AcDbLine
 10
-228.1
 20
266.7316441283
 30
0.0
 11
-228.1
 21
256.7316441283
 31
0.0
  0
LINE
  5
15D
330
1B
100
AcDbEntity
 67
     1
  8
0
  6
Continuous
 62
     7
370
    25
100
AcDbLine
 10
-234.1
 20
256.7316441283
 30
0.0
 11
-234.1
 21
266.7316441283
 31
0.0
  0
LINE
  5
15E
330
1B
100
AcDbEntity
 67
     1
  8
0
  6
Continuous
 62
     7
370
    25
100
AcDbLine
 10
-223.1
 20
226.7316441283
 30
0.0
 11
-239.1
 21
226.7316441283
 31
0.0
  0
LINE
  5
15F
330
1B
100
AcDbEntity
 67
     1
  8
0
  6
Continuous
 62
     7
370
    25
100
AcDbLine
 10
-239.1
 20
232.7316441283
 30
0.0
 11
-223.1
 21
232.7316441283
 31
0.0
  0
LINE
  5
160
330
1B
100
AcDbEntity
 67
     1
  8
0
  6
Continuous
 62
     7
370
    25
100
AcDbLine
 10
-256.0
 20
306.7316441283
 30
0.0
 11
-208.1
 21
306.7316441283
 31
0.0
  0
LINE
  5
161
330
1B
100
AcDbEntity
 67
     1
  8
0
  6
Continuous
 62
     7
370
    25
100
AcDbLine
 10
-218.2999687854
 20
199.0
 30
0.0
 11
-218.2999687854
 21
49.0
 31
0.0
  0
LINE
  5
162
330
1B
100
AcDbEntity
 67
     1
  8
0
  6
Continuous
 62
     7
370
    25
100
AcDbLine
 10
-245.2
 20
199.0
 30
0.0
 11
-147.2
 21
199.0
 31
0.0
  0
LINE
  5
163
330
1B
100
AcDbEntity
 67
     1
  8
0
  6
Continuous
 62
     7
370
    25
100
AcDbLine
 10
-199.2999687854
 20
199.0
 30
0.0
 11
-199.2999687854
 21
49.0
 31
0.0
  0
LINE
  5
164
330
1B
100
AcDbEntity
 67
     1
  8
0
  6
Continuous
 62
     7
370
    25
100
AcDbLine
 10
-218.2999687854
 20
49.0
 30
0.0
 11
-199.2999687854
 21
49.0
 31
0.0
  0
LINE
  5
165
330
1B
100
AcDbEntity
 67
     1
  8
0
  6
Continuous
 62
     7
370
    25
100
AcDbLine
 10
-252.2
 20
116.0
 30
0.0
 11
-245.2
 21
116.0
 31
0.0
  0
LINE
  5
166
330
1B
100
AcDbEntity
 67
     1
  8
0
  6
Continuous
 62
     7
370
    25
100
AcDbLine
 10
-245.2
 20
199.0
 30
0.0
 11
-245.2
 21
116.0
 31
0.0
  0
LINE
  5
167
330
1B
100
AcDbEntity
 67
     1
  8
0
  6
Continuous
 62
     7
370
    25
100
AcDbLine
 10
-252.2
 20
33.0
 30
0.0
 11
-252.2
 21
116.0
 31
0.0
  0
LINE
  5
168
330
1B
100
AcDbEntity
 67
     1
  8
0
  6
Continuous
 62
     7
370
    25
100
AcDbLine
 10
-250.7
 20
33.0
 30
0.0
 11
-252.2
 21
33.0
 31
0.0
  0
LINE
  5
169
330
1B
100
AcDbEntity
 67
     1
  8
0
  6
Continuous
 62
     7
370
    25
100
AcDbLine
 10
145.8
 20
199.0
 30
0.0
 11
243.8
 21
199.0
 31
0.0
  0
LINE
  5
16A
330
1B
100
AcDbEntity
 67
     1
  8
0
  6
Continuous
 62
     7
370
    25
100
AcDbLine
 10
197.8999687854
 20
199.0
 30
0.0
 11
197.8999687854
 21
49.0
 31
0.0
  0
LINE
  5
16B
330
1B
100
AcDbEntity
 67
     1
  8
0
  6
Continuous
 62
     7
370
    25
100
AcDbLine
 10
216.8999687854
 20
199.0
 30
0.0
 11
216.8999687854
 21
49.0
 31
0.0
  0
LINE
  5
16C
330
1B
100
AcDbEntity
 67
     1
  8
0
  6
Continuous
 62
     7
370
    25
100
AcDbLine
 10
216.8999687854
 20
49.0
 30
0.0
 11
197.8999687854
 21
49.0
 31
0.0
  0
LINE
  5
16D
330
1B
100
AcDbEntity
 67
     1
  8
0
  6
Continuous
 62
     7
370
    25
100
AcDbLine
 10
243.8
 20
199.0
 30
0.0
 11
243.8
 21
116.0
 31
0.0
  0
LINE
  5
16E
330
1B
100
AcDbEntity
 67
     1
  8
0
  6
Continuous
 62
     7
370
    25
100
AcDbLine
 10
250.8
 20
116.0
 30
0.0
 11
243.8
 21
116.0
 31
0.0
  0
LINE
  5
16F
330
1B
100
AcDbEntity
 67
     1
  8
0
  6
Continuous
 62
     7
370
    25
100
AcDbLine
 10
250.8
 20
33.0
 30
0.0
 11
250.8
 21
116.0
 31
0.0
  0
LINE
  5
170
330
1B
100
AcDbEntity
 67
     1
  8
0
  6
Continuous
 62
     7
370
    25
100
AcDbLine
 10
249.3
 20
33.0
 30
0.0
 11
250.8
 21
33.0
 31
0.0
  0
LINE
  5
171
330
1B
100
AcDbEntity
 67
     1
  8
0
  6
Continuous
 62
     7
370
    25
100
AcDbLine
 10
-217.2
 20
47.5
 30
0.0
 11
-217.2
 21
49.0
 31
0.0
  0
LINE
  5
172
330
1B
100
AcDbEntity
 67
     1
  8
0
  6
Continuous
 62
     7
370
    25
100
AcDbLine
 10
-18.6285714286
 20
109.0
 30
0.0
 11
17.2285714286
 21
109.0
 31
0.0
  0
LINE
  5
173
330
1B
100
AcDbEntity
 67
     1
  8
0
  6
Continuous
 62
     7
370
    25
100
AcDbLine
 10
215.8
 20
49.0
 30
0.0
 11
215.8
 21
47.5
 31
0.0
  0
LINE
  5
174
330
1B
100
AcDbEntity
 67
     1
  8
0
  6
Continuous
 62
     7
370
    25
100
AcDbLine
 10
208.1
 20
284.0
 30
0.0
 11
-208.1
 21
284.0
 31
0.0
  0
LINE
  5
175
330
1B
100
AcDbEntity
 67
     1
  8
0
  6
Continuous
 62
     7
370
    25
100
AcDbLine
 10
-261.0
 20
344.0
 30
0.0
 11
261.0
 21
344.0
 31
0.0
  0
ARC
  5
176
330
1B
100
AcDbEntity
 67
     1
  8
0
  6
Continuous
 62
     7
370
    25
100
AcDbCircle
 10
223.1
 20
229.7316441283
 30
0.0
 40
3.000000000000057
100
AcDbArc
 50
90.0
 51
270.0
  0
ARC
  5
177
330
1B
100
AcDbEntity
 67
     1
  8
0
  6
Continuous
 62
     7
370
    25
100
AcDbCircle
 10
239.1
 20
229.7316441283
 30
0.0
 40
3.000000000000057
100
AcDbArc
 50
270.0
 51
90.0
  0
ARC
  5
178
330
1B
100
AcDbEntity
 67
     1
  8
0
  6
Continuous
 62
     7
370
    25
100
AcDbCircle
 10
231.1
 20
256.7316441283
 30
0.0
 40
3.0
100
AcDbArc
 50
180.0
 51
0.0
  0
ARC
  5
179
330
1B
100
AcDbEntity
 67
     1
  8
0
  6
Continuous
 62
     7
370
    25
100
AcDbCircle
 10
231.1
 20
266.7316441283
 30
0.0
 40
3.0
100
AcDbArc
 50
0.0
 51
180.0
  0
ARC
  5
17A
330
1B
100
AcDbEntity
 67
     1
  8
0
  6
Continuous
 62
     7
370
    25
100
AcDbCircle
 10
223.1
 20
293.7316441283
 30
0.0
 40
3.0
100
AcDbArc
 50
90.0
 51
270.0
  0
ARC
  5
17B
330
1B
100
AcDbEntity
 67
     1
  8
0
  6
Continuous
 62
     7
370
    25
100
AcDbCircle
 10
239.1
 20
293.7316441283
 30
0.0
 40
3.0
100
AcDbArc
 50
270.0
 51
90.0
  0
ARC
  5
17C
330
1B
100
AcDbEntity
 67
     1
  8
0
  6
Continuous
 62
     7
370
    25
100
AcDbCircle
 10
-223.1
 20
293.7316441283
 30
0.0
 40
3.0
100
AcDbArc
 50
270.0
 51
90.0
  0
ARC
  5
17D
330
1B
100
AcDbEntity
 67
     1
  8
0
  6
Continuous
 62
     7
370
    25
100
AcDbCircle
 10
-231.1
 20
266.7316441283
 30
0.0
 40
3.0
100
AcDbArc
 50
0.0
 51
180.0
  0
ARC
  5
17E
330
1B
100
AcDbEntity
 67
     1
  8
0
  6
Continuous
 62
     7
370
    25
100
AcDbCircle
 10
-231.1
 20
256.7316441283
 30
0.0
 40
3.0
100
AcDbArc
 50
180.0
 51
0.0
  0
ARC
  5
17F
330
1B
100
AcDbEntity
 67
     1
  8
0
  6
Continuous
 62
     7
370
    25
100
AcDbCircle
 10
-223.1
 20
229.7316441283
 30
0.0
 40
3.000000000000057
100
AcDbArc
 50
270.0
 51
90.0
  0
ARC
  5
180
330
1B
100
AcDbEntity
 67
     1
  8
0
  6
Continuous
 62
     7
370
    25
100
AcDbCircle
 10
-239.1
 20
229.7316441283
 30
0.0
 40
3.000000000000057
100
AcDbArc
 50
90.0
 51
270.0
  0
ARC
  5
181
330
1B
100
AcDbEntity
 67
     1
  8
0
  6
Continuous
 62
     7
370
    25
100
AcDbCircle
 10
-239.1
 20
293.7316441283
 30
0.0
 40
3.0
100
AcDbArc
 50
90.0
 51
270.0
  0
ARC
  5
182
330
1B
100
AcDbEntity
 67
     1
  8
0
  6
Continuous
 62
     7
370
    25
100
AcDbCircle
 10
-219.2
 20
49.5
 30
0.0
 40
2.000000000000179
100
AcDbArc
 50
270.0
 51
345.5224878141
  0
ARC
  5
183
330
1B
100
AcDbEntity
 67
     1
  8
0
  6
Continuous
 62
     7
370
    25
100
AcDbCircle
 10
-247.2
 20
204.5
 30
0.0
 40
8.00000000000006
100
AcDbArc
 50
316.5674634422
 51
284.4775121859
  0
ARC
  5
184
330
1B
100
AcDbEntity
 67
     1
  8
0
  6
Continuous
 62
     7
370
    25
100
AcDbCircle
 10
217.8
 20
49.5
 30
0.0
 40
2.00000000000001
100
AcDbArc
 50
194.4775121859
 51
270.0
  0
ARC
  5
185
330
1B
100
AcDbEntity
 67
     1
  8
0
  6
Continuous
 62
     7
370
    25
100
AcDbCircle
 10
245.8
 20
204.5
 30
0.0
 40
7.999999999999996
100
AcDbArc
 50
255.5224878141
 51
223.4325365578
  0
ARC
  5
186
330
1B
100
AcDbEntity
 67
     1
  8
0
  6
Continuous
 62
     7
370
    25
100
AcDbCircle
 10
-147.2
 20
115.3775510204
 30
0.0
 40
83.62244897959194
100
AcDbArc
 50
20.0159596029
 51
90.0
  0
ARC
  5
187
330
1B
100
AcDbEntity
 67
     1
  8
0
  6
Continuous
 62
     7
370
    25
100
AcDbCircle
 10
-18.6285714286
 20
162.2142857143
 30
0.0
 40
53.21428571428571
100
AcDbArc
 50
200.0159596029
 51
270.0
  0
ARC
  5
188
330
1B
100
AcDbEntity
 67
     1
  8
0
  6
Continuous
 62
     7
370
    25
100
AcDbCircle
 10
17.2285714286
 20
162.2142857143
 30
0.0
 40
53.21428571428561
100
AcDbArc
 50
270.0
 51
339.9840403971
  0
ARC
  5
189
330
1B
100
AcDbEntity
 67
     1
  8
0
  6
Continuous
 62
     7
370
    25
100
AcDbCircle
 10
145.8
 20
115.3775510204
 30
0.0
 40
83.62244897959188
100
AcDbArc
 50
90.0
 51
159.9840403971
  0
VIEWPORT
  5
439
330
1B
100
AcDbEntity
 67
     1
  8
0
100
AcDbViewport
 10
0.0
 20
0.0
 30
0.0
 40
205.6
 41
156.0
 68
     1
 69
     1
 12
0.0
 22
200.0
 13
0.0
 23
0.0
 14
10.0
 24
10.0
 15
10.0
 25
10.0
 16
0.0
 26
0.0
 36
1.0
 17
0.0
 27
0.0
 37
0.0
 42
50.0
 43
0.0
 44
0.0
 45
432.1624902724
 50
0.0
 51
0.0
 72
   100
 90
   557152
  1

281
     0
 71
     1
 74
     0
110
0.0
120
0.0
130
0.0
111
1.0
121
0.0
131
0.0
112
0.0
122
1.0
132
0.0
 79
     0
146
0.0
  0
ENDSEC
  0
SECTION
  2
OBJECTS
  0
DICTIONARY
  5
C
330
0
100
AcDbDictionary
281
     1
  3
ACAD_GROUP
350
D
  3
ACAD_LAYOUT
350
1A
  3
ACAD_MLINESTYLE
350
17
  3
ACAD_PLOTSETTINGS
350
19
  3
ACAD_PLOTSTYLENAME
350
E
  3
ACAD_SCALELIST
350
47
  0
DICTIONARY
  5
D
102
{ACAD_REACTORS
330
C
102
}
330
C
100
AcDbDictionary
281
     1
  0
DICTIONARY
  5
1A
102
{ACAD_REACTORS
330
C
102
}
330
C
100
AcDbDictionary
281
     1
  3
_Back
350
1E
  3
_Isometric
350
2A4
  3
_Left
350
26
  3
_Top
350
1AF
  3
Model
350
22
  0
DICTIONARY
  5
17
102
{ACAD_REACTORS
330
C
102
}
330
C
100
AcDbDictionary
281
     1
  3
Standard
350
18
  0
DICTIONARY
  5
19
102
{ACAD_REACTORS
330
C
102
}
330
C
100
AcDbDictionary
281
     1
  0
ACDBDICTIONARYWDFLT
  5
E
102
{ACAD_REACTORS
330
C
102
}
330
C
100
AcDbDictionary
281
     1
  3
Normal
350
F
100
AcDbDictionaryWithDefault
340
F
  0
DICTIONARY
  5
47
102
{ACAD_REACTORS
330
C
102
}
330
C
100
AcDbDictionary
281
     1
  3
A0
350
48
  3
A1
350
49
  3
A2
350
4A
  3
A3
350
4B
  3
A4
350
4C
  3
A5
350
4D
  3
A6
350
4E
  3
A7
350
4F
  3
A8
350
50
  3
A9
350
51
  3
B0
350
52
  3
B1
350
53
  3
B2
350
54
  3
B3
350
55
  3
B4
350
56
  3
B5
350
57
  3
B6
350
58
  3
B7
350
59
  3
B8
350
5A
  3
B9
350
5B
  3
C0
350
5C
  3
C1
350
5D
  3
C2
350
5E
  3
C3
350
5F
  3
C4
350
60
  3
C5
350
61
  3
C6
350
62
  3
C7
350
63
  3
C8
350
64
  3
C9
350
65
  3
D0
350
66
  3
D1
350
67
  3
D2
350
68
  0
LAYOUT
  5
1E
102
{ACAD_REACTORS
330
1A
102
}
330
1A
100
AcDbPlotSettings
  1

  2
none_device
  4
ISO_A4_(210.00_x_297.00_MM)
  6

 40
7.5
 41
20.0
 42
7.5
 43
20.0
 44
210.0
 45
297.0
 46
0.0
 47
0.0
 48
0.0
 49
0.0
140
0.0
141
0.0
142
1.0
143
2.1727626459
 70
   688
 72
     1
 73
     1
 74
     1
  7

 75
     0
147
0.460243553
148
279.2
149
0.0
100
AcDbLayout
  1
_Back
 70
     1
 71
     1
 10
-322.6552529183
 20
-16.2957198444
 11
322.6552529183
 21
439.9844357977
 12
0.0
 22
0.0
 32
0.0
 14
-279.2
 24
0.0
 34
0.0
 15
279.2
 25
400.0
 35
0.0
146
0.0
 13
0.0
 23
0.0
 33
0.0
 16
1.0
 26
0.0
 36
0.0
 17
0.0
 27
1.0
 37
0.0
 76
     0
330
1B
331
439
  0
LAYOUT
  5
2A4
102
{ACAD_REACTORS
330
1A
102
}
330
1A
100
AcDbPlotSettings
  1

  2
none_device
  4
ISO_A4_(210.00_x_297.00_MM)
  6

 40
7.5
 41
20.0
 42
7.5
 43
20.0
 44
210.0
 45
297.0
 46
0.0
 47
0.0
 48
0.0
 49
0.0
140
0.0
141
0.0
142
1.0
143
2.1727626459
 70
   688
 72
     1
 73
     1
 74
     1
  7

 75
     0
147
0.460243553
148
279.2
149
0.0
100
AcDbLayout
  1
_Isometric
 70
     1
 71
     4
 10
0.0
 20
0.0
 11
0.0
 21
0.0
 12
0.0
 22
0.0
 32
0.0
 14
0.0
 24
0.0
 34
0.0
 15
0.0
 25
0.0
 35
0.0
146
0.0
 13
0.0
 23
0.0
 33
0.0
 16
1.0
 26
0.0
 36
0.0
 17
0.0
 27
1.0
 37
0.0
 76
     0
330
2A3
331
43F
  0
LAYOUT
  5
26
102
{ACAD_REACTORS
330
1A
102
}
330
1A
100
AcDbPlotSettings
  1

  2
none_device
  4
ISO_A4_(210.00_x_297.00_MM)
  6

 40
7.5
 41
20.0
 42
7.5
 43
20.0
 44
210.0
 45
297.0
 46
0.0
 47
0.0
 48
0.0
 49
0.0
140
0.0
141
0.0
142
1.0
143
2.1727626459
 70
   688
 72
     1
 73
     1
 74
     1
  7

 75
     0
147
0.460243553
148
279.2
149
0.0
100
AcDbLayout
  1
_Left
 70
     1
 71
     2
 10
0.0
 20
0.0
 11
0.0
 21
0.0
 12
0.0
 22
0.0
 32
0.0
 14
0.0
 24
0.0
 34
0.0
 15
0.0
 25
0.0
 35
0.0
146
0.0
 13
0.0
 23
0.0
 33
0.0
 16
1.0
 26
0.0
 36
0.0
 17
0.0
 27
1.0
 37
0.0
 76
     0
330
23
331
43B
  0
LAYOUT
  5
1AF
102
{ACAD_REACTORS
330
1A
102
}
330
1A
100
AcDbPlotSettings
  1

  2
none_device
  4
ISO_A4_(210.00_x_297.00_MM)
  6

 40
7.5
 41
20.0
 42
7.5
 43
20.0
 44
210.0
 45
297.0
 46
0.0
 47
0.0
 48
0.0
 49
0.0
140
0.0
141
0.0
142
1.0
143
2.1727626459
 70
   688
 72
     1
 73
     1
 74
     1
  7

 75
     0
147
0.460243553
148
279.2
149
0.0
100
AcDbLayout
  1
_Top
 70
     1
 71
     3
 10
0.0
 20
0.0
 11
0.0
 21
0.0
 12
0.0
 22
0.0
 32
0.0
 14
0.0
 24
0.0
 34
0.0
 15
0.0
 25
0.0
 35
0.0
146
0.0
 13
0.0
 23
0.0
 33
0.0
 16
1.0
 26
0.0
 36
0.0
 17
0.0
 27
1.0
 37
0.0
 76
     0
330
1AE
331
43D
  0
LAYOUT
  5
22
102
{ACAD_REACTORS
330
1A
102
}
330
1A
100
AcDbPlotSettings
  1

  2
none_device
  4
ANSI_A_(11.00_x_8.50_Inches)
  6

 40
6.35
 41
19.05
 42
6.35000508
 43
19.05000254
 44
279.4
 45
215.9
 46
133.34999746
 47
-10.1709181754
 48
0.0
 49
0.0
140
0.0
141
0.0
142
0.019502149
143
1.0
 70
  1696
 72
     0
 73
     0
 74
     0
  7

 75
     0
147
0.0179189148
148
-1300.4909072572
149
0.0
100
AcDbLayout
  1
Model
 70
     1
 71
     0
 10
0.0
 20
0.0
 11
420.0
 21
297.0
 12
0.0
 22
0.0
 32
0.0
 14
-279.2
 24
0.0
 34
0.0
 15
279.2
 25
400.0
 35
0.0
146
0.0
 13
0.0
 23
0.0
 33
0.0
 16
1.0
 26
0.0
 36
0.0
 17
0.0
 27
1.0
 37
0.0
 76
     0
330
1F
331
29
  0
MLINESTYLE
  5
18
102
{ACAD_REACTORS
330
17
102
}
330
17
100
AcDbMlineStyle
  2
Standard
 70
     0
  3

 62
   256
 51
90.0
 52
90.0
 71
     2
 49
0.5
 62
   256
  6
BYLAYER
 49
-0.5
 62
   256
  6
BYLAYER
  0
ACDBPLACEHOLDER
  5
F
102
{ACAD_REACTORS
330
E
102
}
330
E
  0
SCALE
  5
48
102
{ACAD_REACTORS
330
47
102
}
330
47
100
AcDbScale
 70
     0
300
1:1
140
1.0
141
1.0
290
     1
  0
SCALE
  5
49
102
{ACAD_REACTORS
330
47
102
}
330
47
100
AcDbScale
 70
     0
300
1:2
140
1.0
141
2.0
290
     0
  0
SCALE
  5
4A
102
{ACAD_REACTORS
330
47
102
}
330
47
100
AcDbScale
 70
     0
300
1:4
140
1.0
141
4.0
290
     0
  0
SCALE
  5
4B
102
{ACAD_REACTORS
330
47
102
}
330
47
100
AcDbScale
 70
     0
300
1:5
140
1.0
141
5.0
290
     0
  0
SCALE
  5
4C
102
{ACAD_REACTORS
330
47
102
}
330
47
100
AcDbScale
 70
     0
300
1:8
140
1.0
141
8.0
290
     0
  0
SCALE
  5
4D
102
{ACAD_REACTORS
330
47
102
}
330
47
100
AcDbScale
 70
     0
300
1:10
140
1.0
141
10.0
290
     0
  0
SCALE
  5
4E
102
{ACAD_REACTORS
330
47
102
}
330
47
100
AcDbScale
 70
     0
300
1:16
140
1.0
141
16.0
290
     0
  0
SCALE
  5
4F
102
{ACAD_REACTORS
330
47
102
}
330
47
100
AcDbScale
 70
     0
300
1:20
140
1.0
141
20.0
290
     0
  0
SCALE
  5
50
102
{ACAD_REACTORS
330
47
102
}
330
47
100
AcDbScale
 70
     0
300
1:30
140
1.0
141
30.0
290
     0
  0
SCALE
  5
51
102
{ACAD_REACTORS
330
47
102
}
330
47
100
AcDbScale
 70
     0
300
1:40
140
1.0
141
40.0
290
     0
  0
SCALE
  5
52
102
{ACAD_REACTORS
330
47
102
}
330
47
100
AcDbScale
 70
     0
300
1:50
140
1.0
141
50.0
290
     0
  0
SCALE
  5
53
102
{ACAD_REACTORS
330
47
102
}
330
47
100
AcDbScale
 70
     0
300
1:100
140
1.0
141
100.0
290
     0
  0
SCALE
  5
54
102
{ACAD_REACTORS
330
47
102
}
330
47
100
AcDbScale
 70
     0
300
2:1
140
2.0
141
1.0
290
     0
  0
SCALE
  5
55
102
{ACAD_REACTORS
330
47
102
}
330
47
100
AcDbScale
 70
     0
300
4:1
140
4.0
141
1.0
290
     0
  0
SCALE
  5
56
102
{ACAD_REACTORS
330
47
102
}
330
47
100
AcDbScale
 70
     0
300
8:1
140
8.0
141
1.0
290
     0
  0
SCALE
  5
57
102
{ACAD_REACTORS
330
47
102
}
330
47
100
AcDbScale
 70
     0
300
10:1
140
10.0
141
1.0
290
     0
  0
SCALE
  5
58
102
{ACAD_REACTORS
330
47
102
}
330
47
100
AcDbScale
 70
     0
300
100:1
140
100.0
141
1.0
290
     0
  0
SCALE
  5
59
102
{ACAD_REACTORS
330
47
102
}
330
47
100
AcDbScale
 70
     0
300
1/128" = 1'-0"
140
0.0078125
141
12.0
290
     0
  0
SCALE
  5
5A
102
{ACAD_REACTORS
330
47
102
}
330
47
100
AcDbScale
 70
     0
300
1/64" = 1'-0"
140
0.015625
141
12.0
290
     0
  0
SCALE
  5
5B
102
{ACAD_REACTORS
330
47
102
}
330
47
100
AcDbScale
 70
     0
300
1/32" = 1'-0"
140
0.03125
141
12.0
290
     0
  0
SCALE
  5
5C
102
{ACAD_REACTORS
330
47
102
}
330
47
100
AcDbScale
 70
     0
300
1/16" = 1'-0"
140
0.0625
141
12.0
290
     0
  0
SCALE
  5
5D
102
{ACAD_REACTORS
330
47
102
}
330
47
100
AcDbScale
 70
     0
300
3/32" = 1'-0"
140
0.09375
141
12.0
290
     0
  0
SCALE
  5
5E
102
{ACAD_REACTORS
330
47
102
}
330
47
100
AcDbScale
 70
     0
300
1/8" = 1'-0"
140
0.125
141
12.0
290
     0
  0
SCALE
  5
5F
102
{ACAD_REACTORS
330
47
102
}
330
47
100
AcDbScale
 70
     0
300
3/16" = 1'-0"
140
0.1875
141
12.0
290
     0
  0
SCALE
  5
60
102
{ACAD_REACTORS
330
47
102
}
330
47
100
AcDbScale
 70
     0
300
1/4" = 1'-0"
140
0.25
141
12.0
290
     0
  0
SCALE
  5
61
102
{ACAD_REACTORS
330
47
102
}
330
47
100
AcDbScale
 70
     0
300
3/8" = 1'-0"
140
0.375
141
12.0
290
     0
  0
SCALE
  5
62
102
{ACAD_REACTORS
330
47
102
}
330
47
100
AcDbScale
 70
     0
300
1/2" = 1'-0"
140
0.5
141
12.0
290
     0
  0
SCALE
  5
63
102
{ACAD_REACTORS
330
47
102
}
330
47
100
AcDbScale
 70
     0
300
3/4" = 1'-0"
140
0.75
141
12.0
290
     0
  0
SCALE
  5
64
102
{ACAD_REACTORS
330
47
102
}
330
47
100
AcDbScale
 70
     0
300
1" = 1'-0"
140
1.0
141
12.0
290
     0
  0
SCALE
  5
65
102
{ACAD_REACTORS
330
47
102
}
330
47
100
AcDbScale
 70
     0
300
1-1/2" = 1'-0"
140
1.5
141
12.0
290
     0
  0
SCALE
  5
66
102
{ACAD_REACTORS
330
47
102
}
330
47
100
AcDbScale
 70
     0
300
3" = 1'-0"
140
3.0
141
12.0
290
     0
  0
SCALE
  5
67
102
{ACAD_REACTORS
330
47
102
}
330
47
100
AcDbScale
 70
     0
300
6" = 1'-0"
140
6.0
141
12.0
290
     0
  0
SCALE
  5
68
102
{ACAD_REACTORS
330
47
102
}
330
47
100
AcDbScale
 70
     0
300
1'-0" = 1'-0"
140
12.0
141
12.0
290
     0
  0
ENDSEC
  0
EOF
